Akor Tab Söz Çeviri Anasayfası
Akor|Tab|Söz|Nota Arşivi
Gitar Akorları | Tab,Söz ve Nota Anasayfası | En Yeni Şarkılar | En Popüler Şarkılar | Akor Cetveli

Bilgiler
 
Seslendiren ve Şarkı: Ogün Sanlısoy - Yalnız Gittin
Biçim: TAB - SOLO
Tarih: 20 Kasım 2018 Salı
Gönderen: wercase123
Toplam Okuyan: 0 kişi
Bu Ay Okuyan: 0 kişi
Bu Hafta Okuyan: 0 kişi
 
Beğendiniz mi? Yalnız Gittin Tab sayfasını Şimdi paylaşın:

Ogün Sanlısoy - Yalnız Gittin - Tab

  (versiyon 3)
Puanlama:
 (0 kişi)

Yalnız Gittin şarkısının diğer versiyonlarına bakın >>

Metin boyutu: ( + Büyült ) ( - Küçült)   



---------------------------------------------------------
---------------------------------------------------------
-------7-9-9p11-9-7---7p6-7--9--7-6-7-6------------------
----7p9--------------------------------9-7-9--7--5--4p5p4
---------------------------------------------------------
---------------------------------------------------------



---------------------------------------------------------
----10-10-10p8-8-8-8p7-7-7-7p5-5-5-5p3-3-3-3-------------
------------------------------------------6-6-4-2p4------
---------------------------------------------------------
---------------------------------------------------------
---------------------------------------------------------


----7-9-9p10-9-5-5p7---5p7p5--7--------------------------
----8----------------------------------------------------
----9----------------------------------------------------
---------------------------------------------------------
---------------------------------------------------------
---------------------------------------------------------
Yalnız Gittin Tab, AkorMerkezi.com'da yayınlanmıştır.
http://www.akormerkezi.com


İçerik Kısa Linki:


Beğendiniz mi? Yalnız Gittin Tab sayfasını Şimdi paylaşın:


Yalnız Gittin Tab için Komoçotoko'dan Gelenler
Ogün Sanlısoy - Yalnız Gittin için Kullanıcı Görüşleri

Henüz buraya yazan çizen olmamış. Yorum yapmak için buraya tıklayabilirsiniz.


Siz de Görüş Bildirin

Yorum yazma alanı Akor Merkezi üyelerine özel bir bölümdür. (Giriş Yap / Üye Ol / Şifremi Hatırlat)


Anket
hwakeu soruyor:
Sizce hangi grup daha iyi?









Sonuçlar | Sonuçlar & Yorumlar
Yeni Anket | Anketler



AkorMerkezi.com © 2022
Gizlilik Politikası - Kullanım Koşulları - Kurallar - Son Yorumlar - Rastgele

GitarAkor.com kolonisidir. Derleme 0,03 saniye.