Akor Tab Söz Çeviri Anasayfası
Akor|Tab|Söz|Nota Arşivi
Gitar Akorları | Tab,Söz ve Nota Anasayfası | En Yeni Şarkılar | En Popüler Şarkılar | Akor Cetveli

Bilgiler
 
Seslendiren ve Şarkı: Oğuzhan Koç - Ayy (Ben Hala Rüyada)
Biçim: TAB - HİÇBİRİ
Tarih: 24 Nisan 2014 Perşembe
Gönderen: BurakZorlu
Toplam Okuyan: 10.781 kişi
Bu Ay Okuyan: 292 kişi
Bu Hafta Okuyan: 32 kişi
 
Beğendiniz mi? Ayy (Ben Hala Rüyada) Tab sayfasını Şimdi paylaşın:

Oğuzhan Koç - Ayy (Ben Hala Rüyada) - Tab


Puanlama:
 (5 kişi)

Ayy (Ben Hala Rüyada) şarkısının diğer versiyonlarına bakın >>

Metin boyutu: ( + Büyült ) ( - Küçült)   
E-----------------|---------------|----------------|---------------|    |
B---5-6-5---------|-5-6-5-------5-|-6-8-6--5---5---|---5---6-5-7-5-|    | (B) X2
G-7-------7-6-4-7-|-------7-6-7---|----------7---5-|-7---7---------|    |

Ayy benim olduğun zaman.....

E-------------|-------------|-------------|-------------|
B-------------|-5--4--7--5--|-------------|--555-7-5-4--|
G-5--7--5--4--|-------------|---5--7--5---|-------------|

Yıllar geçmiş üstümüzden.....

E-------------|--5-3--------|----------------|    -   
B---5-5-7-7---|-------7-5-7-|-8-10-11-10-8-7-|    -  
G-------------|-------------|----------------|    -  
                                                  - Nakarat (B)
E-------------|-----5-3-----|-7-5-3---------|     -
B---5-5-7-8---|---------7-5-|------7-5-4-0--|     -
G-------------|-------------|---------------|     -


TEKRAR B

TEKRAR A


E--------------------------|----------------|
B---------3---3------------|----------------|
G-5-3-4-5---4---5-3-5-4-2--|--2-5-4-2-1-4-2-|

Dün resmini gördüm.....


TEKRAR A
Ayy (Ben Hala Rüyada) Tab, AkorMerkezi.com'da yayınlanmıştır.
http://www.akormerkezi.com


İçerik Kısa Linki:


Beğendiniz mi? Ayy (Ben Hala Rüyada) Tab sayfasını Şimdi paylaşın:


Ayy (Ben Hala Rüyada) şarkısı için amatör kayıtları dinleyin: (Siz de Ekleyin)

Ayy (Ben Hala Rüyada) Tab için Komoçotoko'dan Gelenler
Aramalar: oguzhan koç ay ben, ay ben hala rüyada, ayy oğuzhan koç akor, oğuzhan koç-ayy, oğuzhan koç ayy benim olduğun zaman, ayy sarkisi tab, oguzhan kocayy tab, oğuzhan koç ben hala rüyada notaları, oguzhan koç ayy, ben hala rüyada akor
Oğuzhan Koç - Ayy (Ben Hala Rüyada) için Kullanıcı Görüşleri

Çok zpr be


Bu Yoruma Cevap Ver
MRT GRGLU | 01 Mart 2015 Pazar 13:39
Güzel


Bu Yoruma Cevap Ver
Bej rengigitarm | 29 Nisan 2014 Salı 20:24


Siz de Görüş Bildirin

Yorum yazma alanı Akor Merkezi üyelerine özel bir bölümdür. (Giriş Yap / Üye Ol / Şifremi Hatırlat)




Anket
asigitaristkız soruyor:
Sizce En İyi,En Güzel Gitar Türü Hangisi..?









Sonuçlar | Sonuçlar & Yorumlar
Yeni Anket | Anketler




Radyo Dinle
AkorMerkezi.com © 2019
Gizlilik Politikası - Kullanım Koşulları - Kurallar - Son Yorumlar - Rastgele

GitarAkor.com kolonisidir. Derleme 0,03 saniye.