Akor Tab Söz Çeviri Anasayfası
Akor|Tab|Söz|Nota Arşivi
Gitar Akorları | Tab,Söz ve Nota Anasayfası | En Yeni Şarkılar | En Popüler Şarkılar | Akor Cetveli

Bilgiler
 
Seslendiren ve Şarkı: Oğuzhan Koç - Bitmedi Elem
Biçim: TAB - INTRO
Tarih: 23 Haziran 2014 Pazartesi
Gönderen: ElecTrafo
Toplam Okuyan: 2.460 kişi
Bu Ay Okuyan: 134 kişi
Bu Hafta Okuyan: 13 kişi
 
Beğendiniz mi? Bitmedi Elem Tab sayfasını Şimdi paylaşın:

Oğuzhan Koç - Bitmedi Elem - Tab


Puanlama:
 (2 kişi)

Bitmedi Elem şarkısının diğer versiyonlarına bakın >>

Metin boyutu: ( + Büyült ) ( - Küçült)   
E----------------------------------
B----------------------------------
G--------4-6-4-----------4-6-4---4-
D--4-5-7-------7-5-4-5-7-------7---
A----------------------------------
E----------------------------------

E----------------------------------
B----------------------------------
G--6-7-6-4-------4-6-7-6-4-6-------
D----------7-5-7-------------------
A----------------------------------
E----------------------------------

E----------------------------------
B----5-----------------------------
G--7---7-6-4---4-7-6-7-6-4-6-------
D------------7---------------------
A----------------------------------
E----------------------------------

E----------------------------------
B----------------------------------
G--7-6-4-7--6-4---6--4-------------
D---------------7------7-5---4-----
A--------------------------7-------
E---------------ElecTrafo----------


Bitmedi Elem Tab, AkorMerkezi.com'da yayınlanmıştır.
http://www.akormerkezi.com


İçerik Kısa Linki:


Beğendiniz mi? Bitmedi Elem Tab sayfasını Şimdi paylaşın:


Bitmedi Elem şarkısı için amatör kayıtları dinleyin: (Siz de Ekleyin)

Bitmedi Elem Tab için Komoçotoko'dan Gelenler
Aramalar: bitmedi elem tab, oguzhan koç bitmedi elem, oğuzhan koç tab, bitmedi elem akor, Oğuzhan koç bitmedi elem tab, oguzhan koç, oğuzhan koç bitmedi elem, bitmedi elem, oguzhan koc elem tab
Oğuzhan Koç - Bitmedi Elem için Kullanıcı Görüşleri

Henüz buraya yazan çizen olmamış. Yorum yapmak için buraya tıklayabilirsiniz.


Siz de Görüş Bildirin

Yorum yazma alanı Akor Merkezi üyelerine özel bir bölümdür. (Giriş Yap / Üye Ol / Şifremi Hatırlat)




Anket
Dionysus soruyor:
Türkiyede rock müzik gelişimini nasıl buluyorsunuz







Sonuçlar | Sonuçlar & Yorumlar
Yeni Anket | Anketler




Radyo Dinle
AkorMerkezi.com © 2019
Gizlilik Politikası - Kullanım Koşulları - Kurallar - Son Yorumlar - Rastgele

GitarAkor.com kolonisidir. Derleme 0,03 saniye.