Akor Tab Söz Çeviri Anasayfası
Akor|Tab|Söz|Nota Arşivi
Gitar Akorları | Tab,Söz ve Nota Anasayfası | En Yeni Şarkılar | En Popüler Şarkılar | Akor Cetveli

Bilgiler
 
Seslendiren ve Şarkı: Oğuzhan Koç - Gül Ki Sevgilim
Biçim: TAB - HİÇBİRİ
Tarih: 24 Ekim 2009 Cumartesi
Gönderen: Kaptan Jack
Toplam Okuyan: 22.870 kişi
Bu Ay Okuyan: 493 kişi
Bu Hafta Okuyan: 53 kişi
 
Beğendiniz mi? Gül Ki Sevgilim Tab sayfasını Şimdi paylaşın:

Oğuzhan Koç - Gül Ki Sevgilim - Tab

  (versiyon 2)
Puanlama:
 (33 kişi)

Gül Ki Sevgilim şarkısının diğer versiyonlarına bakın >>

Metin boyutu: ( + Büyült ) ( - Küçült)   
E--7-5-7----5-7-8--10-8-7-5--------
B----------------------------------

Bu sabah yerini kimler almış

E--3-2-3-5---2-2-0-----------------
B-------------------3--------------

Diye düşündüm kalktığımda

E--0-2-3-2-3---2-2-0------0-2------
B---------------------3------------

Hiçbiri seni hiçbiri beni

E--0-0--------0---2-2-0------------
B------3-1-3------------3----------

hiçbiri bizi anlamamış.

E--7-5-7----5-7-8--10-8-7-5--------
B----------------------------------

Bu sabah telefonu hiç açmadım

E--3-2-3-5---2-2-0-----------------
B-------------------3--------------

Çaldı durdu aldırmadım

E--0-2-3-2-3---2-2-0------0-2------
B---------------------3------------

Hiçbirşey seni seni düşünmemi

E--0-0--------0---2-2-0------3-2-3-
B------3-1-3------------3----------

Engellemez ben anladım.Bu sabahh

------------------------------------------------------------------------------------

Nakarat

E--7-5-3-5-7----5-3-2-3-5----------
B----------------------------------

Gül ki sevgilim Gül ki gözlerin

E--3-2-0-2-3-2-2-0-----------------
B-------------------3--------------

Solmasın sakın aşk çiçeğim

E--3-2-0-2-3---2-0---0-2----------
B------------------3--------------

Gel biraz bana Gel biraz daha

E--0--------0----2-0-------------
B----3-1-3------------3-3--------

Arşa çıksın nağmelerim

---------------------------------------------------------------------------------

Geri kalan sözler. Nakarat Haricinde aynı devam ediyor.

Bu sabah adını boş kağıtlara
Yazdım astım duvarlara
Ben birtek seni,Eski günleri
İstedim canım anlasana

Bu sabah yatağın boş kısmını
Resimlerinle süsledim
Gördün halimi,Anla derdimi
Ne olur dön Çok özledim.Bu sabah

--------------------------------------------------------------------------------

Eksik varsa affola :) acemi işi sayılır.
Gül Ki Sevgilim Tab, AkorMerkezi.com'da yayınlanmıştır.
http://www.akormerkezi.com


İçerik Kısa Linki:


Beğendiniz mi? Gül Ki Sevgilim Tab sayfasını Şimdi paylaşın:


Gül Ki Sevgilim şarkısı için amatör kayıtları dinleyin: (Siz de Ekleyin)

Gül Ki Sevgilim Tab için Komoçotoko'dan Gelenler
Aramalar: sevgilim solo, gül ki flut, oğuzhan koç tab, gül ki sevgilim klasik gitar notaları, gulki sevgilim gitar arpej, oğuzhan koç gulki sevgilim tab gitar, ferhat gocer gulki sevgilim klasik gitar notalari, Gulkı sevgilim gitar notası solo, elektro gitarda gül ki sevgilim dinle, Gülki sevgilim tablatura
Oğuzhan Koç - Gül Ki Sevgilim için Kullanıcı Görüşleri

gzel


Bu Yoruma Cevap Ver
mesut54 | 29 Temmuz 2012 Pazar 15:56
güzl


Bu Yoruma Cevap Ver
mesut54 | 29 Temmuz 2012 Pazar 15:55
güzell...


Bu Yoruma Cevap Ver
lasasur | 29 Ağustos 2011 Pazartesi 19:15
güzel olmuş nakarat uyuyor.Ama çok ince gitmiş hep.Şarkının orjinali sanki bu kadar ince değildi.Yinede güzeldi.Bazı yerleri ben tutturamadım ritmi.Belki benim gitarın akordandır.Akorda sorun var çünkü benim gitarın.


Bu Yoruma Cevap Ver
lasasur | 29 Ağustos 2011 Pazartesi 19:14
Harikasın abi hem basit hem cok güzel çok teşekkürler.


Bu Yoruma Cevap Ver
FıratDe | 20 Haziran 2010 Pazar 14:39
güzel olmuş


Bu Yoruma Cevap Ver
baran.365 | 10 Mayıs 2010 Pazartesi 19:24
guzel olmus cok basıt :) yenı basladım elektro calıyorum başlangıc ıcın ıyı 2. denememde caldım


Bu Yoruma Cevap Ver
MarvoLdo | 08 Kasım 2009 Pazar 03:04
bencede güzel...


Bu Yoruma Cevap Ver
burak033 | 04 Kasım 2009 Çarşamba 19:22
bence güzel...eline sağlık


Bu Yoruma Cevap Ver
sln.l | 31 Ekim 2009 Cumartesi 22:28
yorumlarınızı bekliyorum arkadaşlar.


Bu Yoruma Cevap Ver
Kaptan Jack | 24 Ekim 2009 Cumartesi 21:31


Siz de Görüş Bildirin

Yorum yazma alanı Akor Merkezi üyelerine özel bir bölümdür. (Giriş Yap / Üye Ol / Şifremi Hatırlat)




Anket
bareler soruyor:
Yüksek Sadakatin Hangi Solisti Daha İyi?








Sonuçlar | Sonuçlar & Yorumlar
Yeni Anket | Anketler




Radyo Dinle
AkorMerkezi.com © 2019
Gizlilik Politikası - Kullanım Koşulları - Kurallar - Son Yorumlar - Rastgele

GitarAkor.com kolonisidir. Derleme 0,03 saniye.