Akor Tab Söz Çeviri Anasayfası
Akor|Tab|Söz|Nota Arşivi
Gitar Akorları | Tab,Söz ve Nota Anasayfası | En Yeni Şarkılar | En Popüler Şarkılar | Akor Cetveli

Bilgiler
 
Seslendiren ve Şarkı: Onur Koç - İlla
Biçim: TAB - SOLO
Tarih: 20 Kasım 2018 Salı
Gönderen: ByStick
Toplam Okuyan: 0 kişi
Bu Ay Okuyan: 0 kişi
Bu Hafta Okuyan: 0 kişi
 
Beğendiniz mi? İlla Tab sayfasını Şimdi paylaşın:

Onur Koç - İlla - Tab

  (versiyon 2)
Puanlama:
 (0 kişi)

İlla şarkısının diğer versiyonlarına bakın >>

Metin boyutu: ( + Büyült ) ( - Küçült)   
                     Fm                 G#
e-----3------3---3-4--|--1-----3-1--------|-------------------|
B--------4-----6------|----1-------4-3-1--|--4----4----3-4-6--|
G--5-------5----------|------1------------|-----5-------------|
D---------------------|-------------------|-------------------|
A---------------------|-------------------|-------------------|
E---------------------|--1----------------|--4----------------|

   Gm                   G#                  Gm
e--------------------|-------------------|--------------------|
B--3---3--6-4-3------|-------4--------3--|--------------------|
G---------------5-3--|--5--5------3-5----|--3---3--5-3--------|
D--------------------|-------------------|-------------6-5-6--|
A--------------------|-------------------|--------------------|
E--3-----------------|--4----------------|--3-----------------|

   Cm
e----------3-------3--|
B------4-----4---4----|
G----5---5-----5------|
D---------------------|
A--3------------------|
E---------------------|


Kolay gelsin arkadaşlar, orjinal akor ve solodur. 
İlla Tab, AkorMerkezi.com'da yayınlanmıştır.
http://www.akormerkezi.com


İçerik Kısa Linki:


Beğendiniz mi? İlla Tab sayfasını Şimdi paylaşın:


İlla Tab için Komoçotoko'dan Gelenler
Onur Koç - İlla için Kullanıcı Görüşleri

Henüz buraya yazan çizen olmamış. Yorum yapmak için buraya tıklayabilirsiniz.


Siz de Görüş Bildirin

Yorum yazma alanı Akor Merkezi üyelerine özel bir bölümdür. (Giriş Yap / Üye Ol / Şifremi Hatırlat)


Anket
izlemeyom soruyor:
Gitar mı? Çikolata mı?








Sonuçlar | Sonuçlar & Yorumlar
Yeni Anket | Anketler



AkorMerkezi.com © 2022
Gizlilik Politikası - Kullanım Koşulları - Kurallar - Son Yorumlar - Rastgele

GitarAkor.com kolonisidir. Derleme 0,05 saniye.