Akor Tab Söz Çeviri Anasayfası
Akor|Tab|Söz|Nota Arşivi
Gitar Akorları | Tab,Söz ve Nota Anasayfası | En Yeni Şarkılar | En Popüler Şarkılar | Akor Cetveli

Bilgiler
 
Seslendiren ve Şarkı: Opeth - Ending Credits
Biçim: Bass Tab, Bass Gitar Tab -
Tarih: 5 Ağustos 2005 Cuma
Gönderen: Ferrero
Toplam Okuyan: 564 kişi
Bu Ay Okuyan: 18 kişi
Bu Hafta Okuyan: 3 kişi
 
Beğendiniz mi? Ending Credits Bass Tab sayfasını Şimdi paylaşın:

Opeth - Ending Credits - Bass Tab


Puanlama:
 (0 kişi)

Ending Credits şarkısının diğer versiyonlarına bakın >>

Metin boyutu: ( + Büyült ) ( - Küçült)   
G||-------------------------|-------------------------|
D||-------------------------|-------------------------|
A||----------------7--5--2--|--0--------0----2--0-----|
D||--2---2-2--2-------------|------2-2-------------2--|


                                                            
----------------------------|------------------------------|
----------------------------|------------------------------|
----------------------------|------------------------------|
--1---1-1--1----------------|--4h5h4/2-0h2h2----5h4-2--5h4-|


                                                    
-------------------------|-------------------------|
-------------------------|-------------------------|
----------------7--5--2--|--0--------0----2--0-----|
--2---2-2--2-------------|------2-2-------------2--|


                                                            
----------------------------|------------------------------|
----------------------------|------------------------------|
----------------------------|------------------------------|
--1---1-1--1----------------|--4h5h4/2-0h2h2----5h4-2--5h4-|


                                                    
-------------------------|-------------------------|
-------------------------|-------------------------|
----------------7--5--2--|--0--------0----2--0-----|
--2---2-2--2-------------|------2-2-------------2--|


                                                            
----------------------------|------------------------------|
----------------------------|------------------------------|
----------------------------|------------------------------|
--1---1-1--1----------------|--4h5h4/2-0h2h2----5h4-2--5h4-|


                                                    
-------------------------|-------------------------|
-------------------------|-------------------------|
----------------7--5--2--|--0--------0----2--0-----|
--2---2-2--2-------------|------2-2-------------2--|


                                                            
----------------------------|------------------------------|
----------------------------|------------------------------|
----------------------------|------------------------------|
--1---1-1--1----------------|--4h5h4/2-0h2h2----5h4-2--5h4-|


                                                    
-------------------------|-------------------------|
-------------------------|-------------------------|
----------------7--5--2--|--0--------0----2--0-----|
--2---2-2--2-------------|------2-2-------------2--|


                                                            
----------------------------|------------------------------|
----------------------------|------------------------------|
----------------------------|------------------------------|
--1---1-1--1----------------|--4h5h4/2-0h2h2----5h4-2--5h4-|


                                                    
-------------------------|-------------------------|
-------------------------|-------------------------|
----------------7--5--2--|--0--------0----2--0-----|
--2---2-2--2-------------|------2-2-------------2--|


                                                            
----------------------------|------------------------------|
----------------------------|------------------------------|
----------------------------|------------------------------|
--1---1-1--1----------------|--4h5h4/2-0h2h2----5h4-2--5h4-|


                                                    
-------------------------|-------------------------|
-------------------------|-------------------------|
----------------7--5--2--|--0--------0----2--0-----|
--2---2-2--2-------------|------2-2-------------2--|


                                                            
----------------------------|------------------------------|
----------------------------|------------------------------|
----------------------------|------------------------------|
--1---1-1--1----------------|--4h5h4/2-0h2h2----5h4-2--5h4-|


                                             
--------------------------------------------|
--------------------------------------------|
--------------------------------------------|
--10------0--10----10--------10--------9----|


                                        
---------------------------------------|
---------------------------------------|
---------------------2----2------------|
------9----9------2--------------------|


                                          
-----------------------------------------|
-----------------------------------------|
-----------------------------------------|
--2------2--2----0--------0--------10----|


                                            
-------------------------------------------|
-------------------------------------------|
-------------------------------------------|
------10----10------0--10----10------------|


                                                            
----------------------------------------|------------------|
----------------------------------------|------------------|
--0--------0------0--0----0-------------|------------------|
-----------------------------------4----|------------------|


                                                                  
---------------------|---------------------|---------------------|
-------------5-------|-------------5-------|-------------5-------|
---------3-----------|---------3-----------|---------3-----------|
--2------------------|--2------------------|--2------------------|


                                                                          
---------------------|-------------------------|-------------------------|
-------------5-------|-------------------------|-------------------------|
---------3-----------|----------------7--5--2--|--0--------0----2--0-----|
--2------------------|--2---2-2--2-------------|------2-2-------------2--|


                                                            
----------------------------|------------------------------|
----------------------------|------------------------------|
----------------------------|------------------------------|
--1---1-1--1----------------|--4h5h4/2-0h2h2----5h4-2--5h4-|


                                                    
-------------------------|-------------------------|
-------------------------|-------------------------|
----------------7--5--2--|--0--------0----2--0-----|
--2---2-2--2-------------|------2-2-------------2--|


                                                            
----------------------------|------------------------------|
----------------------------|------------------------------|
----------------------------|------------------------------|
--1---1-1--1----------------|--4h5h4/2-0h2h2----5h4-2--5h4-|


                                                    
-------------------------|-------------------------|
-------------------------|-------------------------|
----------------7--5--2--|--0--------0----2--0-----|
--2---2-2--2-------------|------2-2-------------2--|


                                                            
----------------------------|------------------------------|
----------------------------|------------------------------|
----------------------------|------------------------------|
--1---1-1--1----------------|--4h5h4/2-0h2h2----5h4-2--5h4-|


                                                    
-------------------------|-------------------------|
-------------------------|-------------------------|
----------------7--5--2--|--0--------0----2--0-----|
--2---2-2--2-------------|------2-2-------------2--|


                                                            
----------------------------|------------------------------|
----------------------------|------------------------------|
----------------------------|------------------------------|
--1---1-1--1----------------|--4h5h4/2-0h2h2----5h4-2--5h4-|


                                             
--------------------------------------------|
--------------------------------------------|
--------------------------------------------|
--10------0--10----10--------10--------9----|


                                        
---------------------------------------|
---------------------------------------|
---------------------2----2------------|
------9----9------2--------------------|


                                          
-----------------------------------------|
-----------------------------------------|
-----------------------------------------|
--2------2--2----0--------0--------10----|


                                            
-------------------------------------------|
-------------------------------------------|
-------------------------------------------|
------10----10------0--10----10------------|


                                                            
----------------------------------------|------------------|
----------------------------------------|------------------|
--0--------0------0--0----0-------------|------------------|
-----------------------------------4----|------------------|


                                                                  
---------------------|---------------------|---------------------|
-------------5-------|-------------5-------|-------------5-------|
---------3-----------|---------3-----------|---------3-----------|
--2------------------|--2------------------|--2------------------|


                                                                  
---------------------|---------------------|---------------------|
-------------5-------|-------------5-------|-------------5-------|
---------3-----------|---------3-----------|---------3-----------|
--2------------------|--2------------------|--2------------------|


                                                                  
---------------------|---------------------|---------------------|
-------------5-------|-------------5-------|-------------5-------|
---------3-----------|---------3-----------|---------3-----------|
--2------------------|--2------------------|--2------------------|


                                                                  
---------------------|---------------------|---------------------|
-------------5-------|-------------5-------|-------------5-------|
---------3-----------|---------3-----------|---------3-----------|
--2------------------|--2------------------|--2------------------|


                           
---------------------|---||
-------------5-------|---||
---------3-----------|---||
--2------------------|---||
By Ferrero a.k.a. Oğulcan Türker
Ending Credits Bass Tab, AkorMerkezi.com'da yayınlanmıştır.
http://www.akormerkezi.com


İçerik Kısa Linki:


Beğendiniz mi? Ending Credits Bass Tab sayfasını Şimdi paylaşın:


Ending Credits Bass Tab için Komoçotoko'dan Gelenler
Aramalar: opeth ending credits bass tab, end credits notaları, ending credits, opeth ending credits turkcesi
Opeth - Ending Credits için Kullanıcı Görüşleri

Henüz buraya yazan çizen olmamış. Yorum yapmak için buraya tıklayabilirsiniz.


Siz de Görüş Bildirin

Yorum yazma alanı Akor Merkezi üyelerine özel bir bölümdür. (Giriş Yap / Üye Ol / Şifremi Hatırlat)


Anket
NeonFire soruyor:
Sizce Sanchez Marka Klasik Gitar Nasıl ?







Sonuçlar | Sonuçlar & Yorumlar
Yeni Anket | Anketler



AkorMerkezi.com © 2022
Gizlilik Politikası - Kullanım Koşulları - Kurallar - Son Yorumlar - Rastgele

GitarAkor.com kolonisidir. Derleme 0,2 saniye.