Akor Tab Söz Çeviri Anasayfası
Akor|Tab|Söz|Nota Arşivi
Gitar Akorları | Tab,Söz ve Nota Anasayfası | En Yeni Şarkılar | En Popüler Şarkılar | Akor Cetveli

Bilgiler
 
Seslendiren ve Şarkı: Opeth - Harvest
Biçim: Akor, Gitar Akorları - FULL
Tarih: 21 Kasım 2018 Çarşamba
Gönderen: aczmendi_aslı
Toplam Okuyan: 0 kişi
Bu Ay Okuyan: 0 kişi
Bu Hafta Okuyan: 0 kişi
 
Beğendiniz mi? Harvest Akor sayfasını Şimdi paylaşın:

Opeth - Harvest - Akor


Puanlama:
 (0 kişi)

Harvest şarkısının diğer versiyonlarına bakın >>

Metin boyutu: ( + Büyült ) ( - Küçült)   
OPETH _ HARVEST

"^" işareti= hummer on ya da pull of
"B" işareti= bend

ritmi için ise: VANNN ARABA (A-Y-A-Y)

hepinize kolay gelsin :) (aslı orbeyi)
************************************************

*Em  Em  Em ....


*SOLO 1:
e|--------------------10------------------
b|----10--12--10--12----------------------
g|-9----------------------11--------------
d|---------------------------------------
a|---------------------------------------
e|---------------------------------------

  birinci ritim gitar:    )
  Em  Em  Em ....         )
                          )bu ritimler yukarıdaki  
  ikinci ritim gitar ise: )soloyla birlikte çalınacak
  B  A  G  F#  G  Em      )

  
  *A - B - Em Em Em...* (4 kere çalınacak)

   A - B
 
Cm               Gm  G       
Stay with me awhile
Cm              Gm  G               
Rise above the vile
Cm             Gm  G 
Name my final rest
Cm              Gm  G 
Poured into my chest

Am                                           Em                      
Into the orchard I walk peering way past the gate
Bm                 G              F#   
Wilted scenes for us who couldn't wait

Am                                               Em
Drained by the coldest caress, stalking shadows ahead
Bm                Dm           
Halo of death, all I see is departure
Am                           G#
Mourner's lament but it's me who's the martyr

Gm - G

Cm                 Gm  G
Pledge yourself to me
Cm             Gm  G
Never leave me be
Cm                 Gm   G
Sweat breaks on my brow
Cm              Gm  G
Given time ends now

Am                                           Em                      
Into the orchard I walk peering way past the gate
Bm                 G              F#   
Wilted scenes for us who couldn't wait

Am                                               Em
Drained by the coldest caress, stalking shadows ahead
Bm                Dm           
Halo of death, all I see is departure
Am                           G#
Mourner's lament but it's me who's the martyr

*SOLO 2: (2 defa çalınacak, ayrıca bitiş solosu 2
 ile birlikte de çalınacak.) 
e|--------------------------------------
b|---------------------------------------
g|-7--9^10--9^7------7--9--8---------------
d|---------------10-----------9--8---------
a|------------------------------------10---
e|-----------------------------------------
    Dm        Am        C# - B - Cm - Gm

*SOLO 3: (2 defa)
e|------------------------------------------------
b|-----------------------------------------------
g|-10--12^14---12--10--9--10--12--12^13--11--12-----
d|-----------------------------------------------12-
a|-------------------------------------------------
e|-------------------------------------------------
   Dm        Am        C# - B - Cm - Gm

*SOLO 4:
e|-------------------------------------------
b|-15--17--18--17^18^17^15^17--15B-----------
g|-------------------------------------------
d|-------------------------------------------
a|------------------------------------------
e|------------------------------------------
     Dm              Am

e|-----------------------------------------------
b|-15--------------------------------------------
g|-----16---------------------16------------------
d|---------17--17^12--12--16------17--17^12------
a|-------------------------------------------13-
e|-----------------------------------------------
     C#     -    B    -    Cm   - Gm

e|---------------------------------------------
b|---------------------------------------------
g|---------------------------------------------
d|-------------------12--14--15--13--12^13-----
a|-12^13--10^12--12----------------------------
e|---------------------------------------------
    Dm           Am      C#     B

e|---------------------------------------------
b|---------------------------------------------
g|---------------------------------------------
d|-----13--12--12^13^12--12--------------------
a|-13------------------------13--12------------
e|---------------------------------------------
    Cm    


e|------------------------------------------------
b|------------12^13^12----------------------------
g|-14--12^14------------14--12--------------------
d|------------------------------14--12^13--12^13--
a|-------------------------------------------------
e|-------------------------------------------------
   Dm          Am             C#         B     Cm

e|-----------------------------------------------
b|----------------------------------------------
g|----------------------------------------------
d|----------------------------------------------
a|-13--15---------------------------------------
e|---------15--13--11--10--8--------------------
      Cm

e|---------------------15------------------------
b|----------------14B-----14B--14------14B------
g|-14--12^14--14-------------------16----------
d|-----------------------------------------------
a|-----------------------------------------------
e|----------------------------------------------
    Dm         Am               C#      

e|-----------------------------------------------
b|-----------------------------------------------
g|-13--15--16--15^16^15--13-----------------------
d|------------------------------------------------
a|------------------------------------------------
e|-----------------------------------------------
   B     Cm 

Cm              Gm  G
Spirit painted sin
Cm              Gm  G
Embers neath my skin

Cm               Gm    G
Veiled in pale embrace
  
Cm                       Gm   G
Reached and touched my face


Am                                           Em                      
Into the orchard I walk peering way past the gate
Bm                 G              F#   
Wilted scenes for us who couldn't wait

Am                                               Em
Drained by the coldest caress, stalking shadows ahead
Bm                Dm           
Halo of death, all I see is departure
Am                           G#
Mourner's lament but it's me who's the martyr

Gm - G

*SOLO 1:
e|--------------------10------------------
b|----10--12--10--12----------------------
g|-9----------------------11--------------
d|---------------------------------------
a|---------------------------------------
e|---------------------------------------

  birinci ritim gitar:        )
  Em  Em  Em ....             )
                              )yukarıdaki soloyla 
  ikinci ritm gitar ise:      )birlikte çalınacak
  B  A  G  F#  G  Em          )

********Aslı ORBEYİ*********
Harvest Akor, AkorMerkezi.com'da yayınlanmıştır.
http://www.akormerkezi.com


İçerik Kısa Linki:


Beğendiniz mi? Harvest Akor sayfasını Şimdi paylaşın:


Opeth - Harvest KULLANILAN AKORLAR (Beta)
Em0 2 2 0 0 03 x 2 0 0 0x 2 5 x x 0
Bx 2 4 4 4 2
A0 0 2 2 2 00 4 x 2 5 05 7 7 6 5 5
Gx 10 12 12 12 103 2 0 0 0 33 2 0 0 3 3
F#2 4 4 3 2 2x 4 4 3 2 2x x 4 3 2 2
Cmx 3 5 5 4 3x x 5 5 4 3
Gm3 5 5 3 3 3x x 0 3 3 3
Amx 0 2 2 1 0x 0 7 5 5 5x 3 2 2 1 0
Bm2 2 4 4 3 2x 2 4 4 3 2x x 0 4 3 2
Dmx 0 0 2 3 1
G#4 6 6 5 4 4
C#4 4 6 6 6 4x 4 3 1 2 1x 4 6 6 6 4
Şarkıda kullanılan akorların farklı şekillerde basılışlarıdır. (Detaylı bilgi)

Harvest şarkısı için amatör kayıtları dinleyin: (Siz de Ekleyin)

Harvest Akor için Komoçotoko'dan Gelenler
Aramalar: harvest akor
Opeth - Harvest için Kullanıcı Görüşleri

Henüz buraya yazan çizen olmamış. Yorum yapmak için buraya tıklayabilirsiniz.


Siz de Görüş Bildirin

Yorum yazma alanı Akor Merkezi üyelerine özel bir bölümdür. (Giriş Yap / Üye Ol / Şifremi Hatırlat)


Anket
rokcçı_gitarist soruyor:
Sizce Bertuğ Cemil'in En Güzel Şarkısı Hangisi?













Sonuçlar | Sonuçlar & Yorumlar
Yeni Anket | Anketler



AkorMerkezi.com © 2022
Gizlilik Politikası - Kullanım Koşulları - Kurallar - Son Yorumlar - Rastgele

GitarAkor.com kolonisidir. Derleme 0,05 saniye.