Akor Tab Söz Çeviri Anasayfası
Akor|Tab|Söz|Nota Arşivi
Gitar Akorları | Tab,Söz ve Nota Anasayfası | En Yeni Şarkılar | En Popüler Şarkılar | Akor Cetveli

Bilgiler
 
Seslendiren ve Şarkı: Opeth - İn My Time Of Need
Biçim: Bass Tab, Bass Gitar Tab -
Tarih: 5 Ağustos 2005 Cuma
Gönderen: Ferrero
Toplam Okuyan: 426 kişi
Bu Ay Okuyan: 17 kişi
Bu Hafta Okuyan: 2 kişi
 
Beğendiniz mi? İn My Time Of Need Bass Tab sayfasını Şimdi paylaşın:

Opeth - İn My Time Of Need - Bass Tab


Puanlama:
 (0 kişi)

İn My Time Of Need şarkısının diğer versiyonlarına bakın >>

Metin boyutu: ( + Büyült ) ( - Küçült)   
Gtr I (E A D G) - 'Bass'

 Intro
  Q=136
 4/4
  Gtr I
  Wx8
|--------|
|--------|
|--------|
|--------|


   Verse 1
    H    Q.   E   q  Q  H      H    Q.   E   q  Q  H
||--------------|------------|-------------|------------|
||o-------------|------------|-------------|------------|
||o-------------|------------|-------------|------------|
||--0---------0-|-0--0-------|-0---------0-|-0--0-------|


  H    Q.   E   q  Q  Q  E E   H..       E   q  Q  H
|-------------|--------------|-------------|-------------||
|-------------|--------------|-------------|------------o||
|-------------|----------5h7-|-------------|------------o||
|-0---------0-|-0--0---------|-5---------5-|-5--5--------||


 PreChorus 1
  H..       E   q  H.        H..       E   E E H.
|-------------|------------|-------------|-----------|
|-------------|------------|-------------|-----------|
|-4---------4-|-4--4-------|-2-----------|-2---2-----|
|-------------|------------|-----------2-|---2-------|


  H..       E   q  H.        H..       E   q  H    +E  E
|-------------|------------|-------------|----------------|
|-------------|------------|-------------|----------------|
|-0---------0-|-0--0-------|-1---------1-|-1--1----(1)-1S=|
|-------------|------------|-------------|----------------|


   H     E  E  Q     +E   E  E  E  Q.    +E
|-----------------|---------------------------|
|-----------------|---------------------------|
|-13----13-15-16--|-(16)-16-16-15-13----(13)\-|
|-----------------|---------------------------|


 Chorus
  H    Q.   E   q  H    E E   H..       E   q  H    Q
|-------------|-------------|-------------|------------|
|-------------|-------------|-------------|------------|
|-------------|---------5h7-|-------------|------------|
|-0---------0-|-0--0--------|-7---------7-|-7--7----x--|


  H..       E   E  E Q  q  Q    H.      Q     E  E Q  Q  Q
|-------------|---------------|------------|----------------|
|-----------5-|-7-/9p7--------|------------|----------------|
|-------------|---------------|------------|----------------|
|-5-----------|---------5--5--|-0-------2--|-(2)-0-0--0--0--|


  Q.    E  E E E E   +H.      +Q      H..       E   q  H.
|------------------|----------------|-------------|----------|
|--------------5-2-|-(2)------(2)\--|-------------|----------|
|------(3)-3S5-----|----------------|-------------|----------|
|-0----------------|----------------|-7---------7-|-7--7-----|


  H..       E   E E Q  q  Q    H.      Q     E  E Q  Q  Q
|-------------|--------------|------------|----------------|
|-------------|--------------|------------|----------------|
|-----------5h|=7-5h7--------|------------|----------------|
|-5-----------|--------5--5--|-0-------2--|-(2)-0-0--0--0--|


 Verse 2

  Wx8
|--------|
|--------|
|--------|
|--------|


  H    Q.   E   q  Q  H      H    Q.   E   q  Q  H
|-------------|------------|-------------|------------|
|-------------|------------|-------------|------------|
|-------------|------------|-------------|------------|
|-0---------0-|-0--0-------|-0---------0-|-0--0-------|


  H    Q.   E   q  Q  Q  E E   H..       E   Q  Q  E E Q
|-------------|--------------|-------------|---------------|
|-------------|--------------|-------------|---------------|
|-------------|----------5h7-|-------------|-------5h7-5\--|
|-0---------0-|-0--0---------|-5---------5-|----5----------|


 PreChorus 2
  H..       E   q  H.        H..       E   E E H.
|-------------|------------|-------------|-----------|
|-------------|------------|-------------|-----------|
|-4---------4-|-4--4-------|-2-----------|-2---2-----|
|-------------|------------|-----------2-|---2-------|


  H..       E   q  H.        H..       E   q  H    +E  E
|-------------|------------|-------------|---------------|
|-------------|------------|-------------|---------------|
|-0---------0-|-0--0-------|-1---------1-|-1--1----(1)-1-|
|-------------|------------|-------------|---------------|


  Q.   Q.   Q    +E  E +Q   E E E E
|--------------|--------------------|
|--------------|------------3-6-----|
|-1----3----4--|-(4)-6-(6)------6p3-|
|--------------|--------------------|


 Chorus
  Q.   E Q  E E   Q  Q  Q  E E   H..       E   q  H    Q
|---------------|--------------|-------------|------------|
|---------------|--------------|-------------|------------|
|-7-----------7-|-7--7--7--5h7-|-------------|------------|
|------7-0------|--------------|-7---------7-|-7--7----x--|


  H..       E   E  E Q  +Q   +Q      H.      Q     E  E Q  Q  Q
|-------------|--------------------|------------|----------------|
|-----------5-|-7-/9p7--(7)--(7)\--|------------|----------------|
|-------------|--------------------|------------|----------------|
|-5-----------|--------------------|-0-------2--|-(2)-0-0--0--0--|


  Q.    E  E E E E   Q  H    Q     H..       E   q  H.
|------------------|-------------|-------------|----------|
|--------------5-2-|-2--2----2\--|-------------|----------|
|------(3)-3S5-----|-------------|-------------|----------|
|-0----------------|-------------|-7---------7-|-7--7-----|


  H..       E   E E Q  q  Q    H.      Q     E  E Q  Q  Q
|-------------|--------------|------------|----------------|
|-------------|--------------|------------|----------------|
|-------------|-7---7--------|------------|----------------|
|-5---------5-|---5----5--5--|-0-------2--|-(2)-0-0--0--0--|


   Bridge
    Q.    E  E E Q    +W           Q.    E  E E Q    +W
||------------------|------------|-----------------|--------|
||o-----------------|------------|-----------------|--------|
||o-0----(0)-0-x-1--|-(1)--------|-0----(0)-0-x-1--|-(1)----|
||------------------|------------|-----------------|--------|


  Q.    E  E E Q    +W           Q.    E  E E Q    +W
|-----------------|------------|-----------------|---------||
|-----------------|------------|-----------------|--------o||
|-0----(0)-0-x-1--|-(1)--------|-2----(2)-2-x-3--|-(3)----o||
|-----------------|------------|-----------------|---------||


   Interlude
    H    Q.   E   q  Q  H      H    Q.   E   q  Q  H
||--------------|------------|-------------|------------|
||o-------------|------------|-------------|------------|
||o-------------|------------|-------------|------------|
||--0---------0-|-0--0-------|-0---------0-|-0--0-------|


  H    Q.   E   q  Q  Q  E E   H..       E   q  Q  H
|-------------|--------------|-------------|-------------||
|-------------|--------------|-------------|------------o||
|-------------|----------5h7-|-------------|------------o||
|-0---------0-|-0--0---------|-5---------5-|-5--5--------||


 PreOutro
  H..       E   q  H.        H..       E   E E H.
|-------------|------------|-------------|-----------|
|-------------|------------|-------------|-----------|
|-4---------4-|-4--4-------|-2-----------|-2---2-----|
|-------------|------------|-----------2-|---2-------|


  H..       E   q  H.        H..       E   q  H    +E  E
|-------------|------------|-------------|----------------|
|-------------|------------|-------------|----------------|
|-0---------0-|-0--0-------|-1---------1-|-1--1----(1)-1S=|
|-------------|------------|-------------|----------------|


   Q.    Q.    Q     +E    E   E  E  Q.    +E
|-----------------|-----------------------------|
|-----------------|-----------------------------|
|-13----13----13--|-(13)-(16)-16-15-13----(13)\-|
|-----------------|-----------------------------|


   Outro
    H    E E +E  E   Q  H    E E   H..       E   q  H.
||-----------------|-------------|-------------|----------|
||o----------------|-------------|-------------|----------|
||o------5h7-(7)-7-|-7--7----5h7-|-------------|----------|
||--0--------------|-------------|-7---------7-|-7--7-----|


  H..       E   E  E Q  q  Q    H.      Q     E  E Q  Q  Q
|-------------|---------------|------------|----------------|
|-----------5-|-7-/9p7--------|------------|----------------|
|-------------|---------------|------------|----------------|
|-5-----------|---------5--5--|-0-------2--|-(2)-0-0--0--0--|


  Q.    E  E E E E   Q  H    Q     H..       E   q  H    Q
|------------------|-------------|-------------|------------|
|--------------5-2-|-2--2----2\--|-------------|------------|
|------(3)-3S5-----|-------------|-------------|------------|
|-0----------------|-------------|-7---------7-|-7--7----x--|


  H..       E   E E Q  q  Q    H.      Q     E  E Q  Q  Q   4x
|-------------|--------------|------------|-----------------||
|-------------|--------------|------------|----------------o||
|-----------5h|=7-5h7--------|------------|----------------o||
|-5-----------|--------5--5--|-0-------2--|-(2)-0-0--0--0---||


Duration Legend
---------------
W - whole; H - half; Q - quarter; E - 8th; S - 16th; T - 32nd; X - 64th; a - acciaccatura

Tablature Legend
----------------
 h   - hammer-on
 p   - pull-off
 b   - bend
 pb  - pre-bend
 r   - bend release (if no number after the r, then release immediately)
 /\  - slide into or out of (from/to "nowhere")
 s   - legato slide
 S   - shift slide
  - natural harmonic
[n]  - artificial harmonic
n(n) - tapped harmonic
 ~   - vibrato
 tr  - trill
 T   - tap
 TP  - trem. picking
 PM  - palm muting
\n/  - tremolo bar dip; n = amount to dip
 \n  - tremolo bar down
 n/  - tremolo bar up
/n\  - tremolo bar inverted dip
 =   - hold bend; also acts as connecting device for hammers/pulls
 <>  - volume swell (louder/softer)
 x   - on rhythm slash represents muted slash
 o   - on rhythm slash represents single note slash

Misc Legend
-----------
 |  - bar
||  - double bar
||o - repeat start
o|| - repeat end
*|  - double bar (ending)
 :  - bar (freetime)
 $  - Segno
 &  - Coda
Tempo markers -  = BPM(8/16=s8/s16), where s8 = swing 8ths, s16 = swing 
By Ferrero a.k.a. Oğulcan Türker
İn My Time Of Need Bass Tab, AkorMerkezi.com'da yayınlanmıştır.
http://www.akormerkezi.com


İçerik Kısa Linki:


Beğendiniz mi? İn My Time Of Need Bass Tab sayfasını Şimdi paylaşın:


İn My Time Of Need Bass Tab için Komoçotoko'dan Gelenler
Aramalar: opeth
Opeth - İn My Time Of Need için Kullanıcı Görüşleri

Henüz buraya yazan çizen olmamış. Yorum yapmak için buraya tıklayabilirsiniz.


Siz de Görüş Bildirin

Yorum yazma alanı Akor Merkezi üyelerine özel bir bölümdür. (Giriş Yap / Üye Ol / Şifremi Hatırlat)


Anket
tremolo soruyor:
Sizce Bugüne Dek Ülkemizde En İyi Rock Müzik Yapan Grup Hangisidir?













Sonuçlar | Sonuçlar & Yorumlar
Yeni Anket | Anketler



AkorMerkezi.com © 2022
Gizlilik Politikası - Kullanım Koşulları - Kurallar - Son Yorumlar - Rastgele

GitarAkor.com kolonisidir. Derleme 0,05 saniye.