Akor Tab Söz Çeviri Anasayfası
Akor|Tab|Söz|Nota Arşivi
Gitar Akorları | Tab,Söz ve Nota Anasayfası | En Yeni Şarkılar | En Popüler Şarkılar | Akor Cetveli

Bilgiler
 
Seslendiren ve Şarkı: Pamela Spence - Aşk Sevgiden Beter
Biçim: Bass Tab, Bass Gitar Tab - FULL
Tarih: 17 Şubat 2014 Pazartesi
Gönderen: Bugahh
Toplam Okuyan: 580 kişi
Bu Ay Okuyan: 25 kişi
Bu Hafta Okuyan: 3 kişi
 
Beğendiniz mi? Aşk Sevgiden Beter Bass Tab sayfasını Şimdi paylaşın:

Pamela Spence - Aşk Sevgiden Beter - Bass Tab


Puanlama:
 (1 kişi)

Aşk Sevgiden Beter şarkısının diğer versiyonlarına bakın >>

Metin boyutu: ( + Büyült ) ( - Küçült)   
Intro:

--------------------------------------------------------5------------------
--------------------9---------------7-7-6-5--5-5-5-----5-------------------
-------------7---5-8-----7-7-7--5--7--------------5-8-7------5-7--5-7------     x2
-------5-5-8-------------------5--8-------------------------------------0-5


Verse:
Ya ben de sevdiğin şeyden dolayı....

-----------------------------------------
-----------------------------------------
-----------------------------------------              x4
--5---5-7--7-8--8-9--9-10--9-10--10-12--1    


Pre-Chorus:
Beni beni...

-----------------------------------------------------      ------------------
-------5----7------------------------------5---7----7      ------------------
----------------5------3-----1-----------------------      -------7-5--------  
---1-------------------------------------------------      -----------8-7-5-4   


Chorus:
Aşk sevgiden beter....


--------------------------------------------------- -----5-----------------
--------------------9---------------7-7-6-5--5-5---- --5-------------------
-------------7---5-8-----7-7-- -5--7--------------5-8-7------5-7--5-7------     x2
-------5-5-8-------------------5--8-------------------------------------0-5


Verse:
Ya ben de sevdiğin şeyden dolayı....

-----------------------------------------
-----------------------------------------
-----------------------------------------              x4
--5---5-7--7-8--8-9--9-10--9-10--10-12--1    


Pre-Chorus:
Beni beni...

-----------------------------------------------------      ------------------
-------5----7------------------------------5---7----7      ------------------
----------------5------3-----1-----------------------      -------7-5--------  
---1-------------------------------------------------      -----------8-7-5-4  



Chorus:
Aşk sevgiden beter....


--------------------------------------------------------5-----------------
---------------------9---------------7-7-6-5--5-5------5-------------------
--------------7---5-8-----7-7---5--7--------------5-8-7------5-7--5-7------     x2
-------5-5-8-------------------5--8------------------------------------0-5


--------------------------------------------------------------------------
--------------------------------------------------------------------------
--------------------------------------------------------------------------  Davulla birlikte...(03:07)
-------5/--------------10/--------------------12/---------10/---------5555



--------------------------------------------------------5-----------------
---------------------9---------------7-7-6-5--5-5------5-------------------
--------------7---5-8-----7-7---5--7--------------5-8-7------5-7--5-7------     x3
-------5-5-8-------------------5--8------------------------------------0-5



---------------------------------------------------------------------------------------
---------------------------------------------------------------------------------------
-------------555555555---777777777---------------------------3333333------7777777777---  Solonun 2. ölçüsünde
---555555555--------------------------55555555554-33333333--------------------------8-5


Aşk sevgiden beter...
--------------------------------------------------------5----------------------
---------------------9---------------7-7-6-5--5-5------5------------------------
--------------7---5-8-----7-7---5--7--------------5-8-7------5-777--5-7777------     x1
-------5-5-8-------------------5--8------------------------------------0-555---
Aşk Sevgiden Beter Bass Tab, AkorMerkezi.com'da yayınlanmıştır.
http://www.akormerkezi.com


İçerik Kısa Linki:


Beğendiniz mi? Aşk Sevgiden Beter Bass Tab sayfasını Şimdi paylaşın:


Aşk Sevgiden Beter Bass Tab için Komoçotoko'dan Gelenler
Aramalar: aşk sevgiden beter gitar ritmi, Gitara sevginin, aşk sevgiden beter
Pamela Spence - Aşk Sevgiden Beter için Kullanıcı Görüşleri

Henüz buraya yazan çizen olmamış. Yorum yapmak için buraya tıklayabilirsiniz.


Siz de Görüş Bildirin

Yorum yazma alanı Akor Merkezi üyelerine özel bir bölümdür. (Giriş Yap / Üye Ol / Şifremi Hatırlat)


Anket
davewilliams soruyor:
Drowning Pool hangi vokalistini beğeniyorsunuz?








Sonuçlar | Sonuçlar & Yorumlar
Yeni Anket | Anketler



AkorMerkezi.com © 2022
Gizlilik Politikası - Kullanım Koşulları - Kurallar - Son Yorumlar - Rastgele

GitarAkor.com kolonisidir. Derleme 0,05 saniye.