Akor Tab Söz Çeviri Anasayfası
Akor|Tab|Söz|Nota Arşivi
Gitar Akorları | Tab,Söz ve Nota Anasayfası | En Yeni Şarkılar | En Popüler Şarkılar | Akor Cetveli

Bilgiler
 
Seslendiren ve Şarkı: Şebnem Ferah - Bırak Kadının Olayım
Biçim: Bass Tab, Bass Gitar Tab -
Tarih: 26 Mart 2007 Pazartesi
Gönderen: slapbas
Toplam Okuyan: 4.705 kişi
Bu Ay Okuyan: 37 kişi
Bu Hafta Okuyan: 5 kişi
 
Beğendiniz mi? Bırak Kadının Olayım Bass Tab sayfasını Şimdi paylaşın:

Şebnem Ferah - Bırak Kadının Olayım - Bass Tab


Puanlama:
 (2 kişi)

Bırak Kadının Olayım şarkısının diğer versiyonlarına bakın >>

Metin boyutu: ( + Büyült ) ( - Küçült)   
||---------------------------|------------------|----6-5---------------|
D||-------------9--7---------|-------------5--7-|--------8--6----8--5--|
A||----7-----8--------9----7-|--5-5----7-8------|----------------------|
E||--------------------------|------------------|----------------------|


G||---------------------------|-----------------|----6-5-----------------|
D||-------------9--7---------|-------------5--7-|---------8-6--8-6-5-----|
A||----7--8-----------9----7-|--5-5----7-8------|------------------------|
E||--------------------------|------------------|------------------------|
parca giriş ve nakarata kadar bu sekilde gidiyor nakarat kısmı ise:


G||------------------|----------------|------------------------------|
D||------------------|----------------|------------------------------|
A||---7-7-7-7-7------|-5-5-5-5-5------|-3----3-3-3-3-3-3-3-----------|
E||------------------|----------------|------------------------------|
nakarat ksım 1. bolum 
G||---------------|----------------|------------------------------------|
D||---------------|----------------|------------------------------------|
A||---7-7-7-7-7---|-5-5-5-5-5------|-3---3-3-3-3-3-3-3------------------|
E||---------------|----------------|------------------------------------|

Bırak Kadının Olayım Bass Tab, AkorMerkezi.com'da yayınlanmıştır.
http://www.akormerkezi.com


İçerik Kısa Linki:


Beğendiniz mi? Bırak Kadının Olayım Bass Tab sayfasını Şimdi paylaşın:


Bırak Kadının Olayım şarkısı için amatör kayıtları dinleyin: (Siz de Ekleyin)

Bırak Kadının Olayım Bass Tab için Komoçotoko'dan Gelenler
Aramalar: Şebnem ferah eski bass tablar, sebnem ferah yalnız bas gıtar tab, şebnem ferah bas, şebnem ferah bass tabları, şebnem ferah tab, şebnem ferah bırak kadinin olayım gitar notaları, şebnem ferah kadın bass tab, şebnem ferah bas tab, sebnem merah birak kadinnin olayim bass tabs, bırak kadinin olayım gitar notaları
Şebnem Ferah - Bırak Kadının Olayım için Kullanıcı Görüşleri

eywllh yaa burda bass tabları görmek de gusel .. bass gitarım yanımda degil ama akustikle denedmm suslemek lazım biras ama gayet verimlii tskkurler (=


Bu Yoruma Cevap Ver
educated_fool | 17 Aralık 2007 Pazartesi 15:54


Siz de Görüş Bildirin

Yorum yazma alanı Akor Merkezi üyelerine özel bir bölümdür. (Giriş Yap / Üye Ol / Şifremi Hatırlat)


Anket
utkuca soruyor:
Sizce...










Sonuçlar | Sonuçlar & Yorumlar
Yeni Anket | Anketler



AkorMerkezi.com © 2022
Gizlilik Politikası - Kullanım Koşulları - Kurallar - Son Yorumlar - Rastgele

GitarAkor.com kolonisidir. Derleme 0,03 saniye.