Akor Tab Söz Çeviri Anasayfası
Akor|Tab|Söz|Nota Arşivi
Gitar Akorları | Tab,Söz ve Nota Anasayfası | En Yeni Şarkılar | En Popüler Şarkılar | Akor Cetveli

Bilgiler
 
Seslendiren ve Şarkı: Seksendört - Faili Meçhul
Biçim: TAB - INTRO
Tarih: 20 Kasım 2018 Salı
Gönderen: newcastle
Toplam Okuyan: 0 kişi
Bu Ay Okuyan: 0 kişi
Bu Hafta Okuyan: 0 kişi
 
Beğendiniz mi? Faili Meçhul Tab sayfasını Şimdi paylaşın:
DİKKAT!
Faili Meçhul Tab sayfasını düzgün görüntüleyemiyor olabilirsiniz.
Eğer böyle bir sıkıntınız varsa tıklayın.

Seksendört - Faili Meçhul - Tab


Puanlama:
 (0 kişi)

Faili Meçhul şarkısının diğer versiyonlarına bakın >>

Metin boyutu: ( + Büyült ) ( - Küçült)   
İNTRO

e--0------------------------------------------------------------------------------------------------
B------1--------3---0--------1-------------------3---0-------1-----------------------0-----1--------
G----------2------------0---------2----0-----------------0--------2------------0--------------------
D-------------------------------------------3--------------------------3----------------------------
A---------------------------------------------------------------------------------------------------
E---------------------------------------------------------------------------------------------------


e--------0----------------------------------------------------------------------------------------------------
-----------
B--1----------3---1----0---3---1---0---------------------------------0---3---1---0-------1--0-----------------
---------
G------------------------------------------2--0--2--0------------0-2------------------2---------2----0-----2-0
----------
D------------------------------------------------------3-3---2-3----------------------------------------------
----3-3--2-2
A-------------------------------------------------------------------------------------------------------------
------------
E-------------------------------------------------------------------------------------------------------------
------------


                               
                                    
                                                                                         
Faili Meçhul Tab, AkorMerkezi.com'da yayınlanmıştır.
http://www.akormerkezi.com


İçerik Kısa Linki:


Beğendiniz mi? Faili Meçhul Tab sayfasını Şimdi paylaşın:


Faili Meçhul Tab için Komoçotoko'dan Gelenler
Aramalar: yemen bızim neyımıze şarkı sozleri, Tab gitar
Seksendört - Faili Meçhul için Kullanıcı Görüşleri

Henüz buraya yazan çizen olmamış. Yorum yapmak için buraya tıklayabilirsiniz.


Siz de Görüş Bildirin

Yorum yazma alanı Akor Merkezi üyelerine özel bir bölümdür. (Giriş Yap / Üye Ol / Şifremi Hatırlat)


Anket
Acoustik soruyor:
Gitarın en iyi dostu kimdir?













Sonuçlar | Sonuçlar & Yorumlar
Yeni Anket | Anketler



AkorMerkezi.com © 2022
Gizlilik Politikası - Kullanım Koşulları - Kurallar - Son Yorumlar - Rastgele

GitarAkor.com kolonisidir. Derleme 0,03 saniye.