Akor Tab Söz Çeviri Anasayfası
Akor|Tab|Söz|Nota Arşivi
Gitar Akorları | Tab,Söz ve Nota Anasayfası | En Yeni Şarkılar | En Popüler Şarkılar | Akor Cetveli

Bilgiler
 
Seslendiren ve Şarkı: Suavi - Drama Köprüsü
Biçim: TAB - HİÇBİRİ
Tarih: 21 Kasım 2018 Çarşamba
Gönderen: doguhan011
Toplam Okuyan: 0 kişi
Bu Ay Okuyan: 0 kişi
Bu Hafta Okuyan: 0 kişi
 
Beğendiniz mi? Drama Köprüsü Tab sayfasını Şimdi paylaşın:

Suavi - Drama Köprüsü - Tab


Puanlama:
 (0 kişi)

Drama Köprüsü şarkısının diğer versiyonlarına bakın >>

Metin boyutu: ( + Büyült ) ( - Küçült)   
E|-7---5-7----5----5--------------------------5--------------------------------
B|---8---------7-8----8--5-7-8-7----5-7-8--7-8--7-5----------------------------
G|------------------------------7---------------------------------------------- 2x
D|-----------------------------------------------------------------------------
A|-----------------------------------------------------------------------------
E|-----------------------------------------------------------------------------
  (Giriş bölümü)   

E|---7-7-7--7-5-5---7-5--5-7--5-8-7-5-5--7-5---5-7-5-8-7-5-5------------------
B|-5--------------8-----------------------------------------------------------
G|-----------------------------------------------------------------------------
D|-----------------------------------------------------------------------------
A|-----------------------------------------------------------------------------
E|-----------------------------------------------------------------------------
  Drama köprüsü hasan  Dardır geçilmez hasan dardır geçilmez


E|-7--7--5--5----------------------5-------------------------------------------
B|--8-----7---8-5-8-7----5-7-8-7-8--7-5----------------------------------------
G|-------------------7---------------------------------------------------------2x
D|-----------------------------------------------------------------------------
A|-----------------------------------------------------------------------------
E|-----------------------------------------------------------------------------
  Soğuktur suları hasan bir tas içilmez

Drama Köprüsü Tab, AkorMerkezi.com'da yayınlanmıştır.
http://www.akormerkezi.com


İçerik Kısa Linki:


Beğendiniz mi? Drama Köprüsü Tab sayfasını Şimdi paylaşın:


Drama Köprüsü Tab için Komoçotoko'dan Gelenler
Suavi - Drama Köprüsü için Kullanıcı Görüşleri

Henüz buraya yazan çizen olmamış. Yorum yapmak için buraya tıklayabilirsiniz.


Siz de Görüş Bildirin

Yorum yazma alanı Akor Merkezi üyelerine özel bir bölümdür. (Giriş Yap / Üye Ol / Şifremi Hatırlat)




Anket
GitarsTUmuT soruyor:
Berk Gürman sizce iyi gitar çalıyormu ?











Sonuçlar | Sonuçlar & Yorumlar
Yeni Anket | Anketler




Radyo Dinle
AkorMerkezi.com © 2018
Gizlilik Politikası - Kullanım Koşulları - Kurallar - Son Yorumlar - Rastgele

GitarAkor.com kolonisidir. Derleme 0,02 saniye.