Akor Tab Söz Çeviri Anasayfası
Akor|Tab|Söz|Nota Arşivi
Gitar Akorları | Tab,Söz ve Nota Anasayfası | En Yeni Şarkılar | En Popüler Şarkılar | Akor Cetveli

Bilgiler
 
Seslendiren ve Şarkı: Survivor - Eye Of The Tiger
Biçim: Bass Tab, Bass Gitar Tab - HİÇBİRİ
Tarih: 20 Mayıs 2014 Salı
Gönderen: basçıalp
Toplam Okuyan: 848 kişi
Bu Ay Okuyan: 32 kişi
Bu Hafta Okuyan: 2 kişi
 
Beğendiniz mi? Eye Of The Tiger Bass Tab sayfasını Şimdi paylaşın:
DİKKAT!
Eye Of The Tiger Bass Tab sayfasını düzgün görüntüleyemiyor olabilirsiniz.
Eğer böyle bir sıkıntınız varsa tıklayın.

Survivor - Eye Of The Tiger - Bass Tab


Puanlama:
 (1 kişi)

Eye Of The Tiger şarkısının diğer versiyonlarına bakın >>

Metin boyutu: ( + Büyült ) ( - Küçült)   
G|-------------------------------------------------------|
D|-------------------------------------------------------|
A|---3------3--1--3----3--1--3-----------------------|       x2
E|----------------------------------------------3-4------|

G|-----------------------------------------------------------|
D|-----------------------------------------------------------|
A|----3--3--3--3--3-----3--3--3--3----3--3--3--------|   x2
E|-----------------------------------------------------3--4-|

G|----------------------------------------------------------------------------------------|
D|----------------------------------------------------------------------------------------|
A|---3-3-3-3-----3-3-3----1-----3-3-3-3---------------------1-1-1-1---3-3-3----1------|
E|----------------------3-------------------4-4-4-4--------------------------3--------|

G|-----------------------------------------------------------------------------------------------|
D|-----------------------------------------------------------------------------------------------|
A|---3-3-3-3-------------1-1-1-1-----3-3-3-----1-----3-3-3-3---------------1-1-1-1------|
E|--------------4-4-4-4--------------------3----------------------4-4-4-4-------------------|

G|-----------------------------------------------------------------------------------------|
D|-----------------------------------------------------------------------------------------|
A|--3-3-3----1----3-3-3-3-------------1-1-1-1----3-3-3-3---------------------------|
E|----------3---------------4-4-4-4-------------------------------------------------|

G|----------------------------------------------------------------------------------------------|
D|---------------------------------------------------------------------------------------------|
A|--------------------------------------3-1-1-1------------------------------------------|
E|----1-1-1-1----4-4--6-6----1-1-1-1--------------1-1-1-1-----4-4-6-6-----------------|

G|-----------------------------------------------------------------------------|
D|-----------------------------------------------------------------------------|
A|-----------------------------------------------------------------------------|
E|--13--12--13--15--13--15--16----------------------------------------------------------------|

G|---------------------------------------------------------------------------------------------------------|
D|--------------------------------------------------------------------------------------------------------|
A|---3-3-3-3-----3-3-3----1-----3-3-3-3---------1-1-1-1---3-3-3----1---3-3-3-3---------1-1-1-1----3-3-3-3---|
E|---------------------3---------------4-4-4-4------------------3--------------4-4-4-4-----------------------|

G|------------------------------------------------------------------------------------------------------------
|
D|------------------------------------------------------------------------------------------------------------
|
A|----------------------------------------3-1-1-1---------------------------------------------------------|
E|------1-1-1-1----4-4--6-6-----1-1-1-1--------------1-1-1-1----4-4-6-6-----13-12-13-15-13-15-16-----|

G|------------------------------------------------------------------------------------------------------------
|
D|--------------------------------------------------------------------------------------------------------|
A|---3-3-3-3-----3-3-3----1-----3-3-3-3-----3-3-3----1-----3-3-3-3----------1-1-1-1------3-3-3----1--------|
E|----------------------3--------------------------3----------------4-4-4-4---------------------3---------|

G|------------------------------------------------------------------------------------------------------|
D|------------------------------------------------------------------------------------------------|
A|---3-3-3-3-------------1-1-1-1---3-3-3-3---------------------------3-1-1-1-1-----------------------------|
E|--------------4-4-4-4--------------1-1-1-1------4-4-6-6-------1-1-1-1-----------------1-1-1-1---4-4-6-6----|

G|-----------------------------------------------------------------------------|
D|-----------------------------------------------------------------------------|
A|-----------------------------------------------------------------------------|
E|--13--12--13--15--13--15--16----------------------------------------------------------------|

G|------------------------------------------------------------------------------------------------|
D|-------------------------------------------------------------------------------------------------|
A|---3-3-3-3-----3-3-3----1-----3-3-3-3-----3-3-3-3--------3-3-3-3------------------------------------------|
E|---------------------3--------------------------------------------3-4----------------------------------|

Eye Of The Tiger Bass Tab, AkorMerkezi.com'da yayınlanmıştır.
http://www.akormerkezi.com


İçerik Kısa Linki:


Beğendiniz mi? Eye Of The Tiger Bass Tab sayfasını Şimdi paylaşın:


Eye Of The Tiger Bass Tab için Komoçotoko'dan Gelenler
Aramalar: eye of the tiger, bass tabs eye ofthe tiger, eye of the tiger tab, eye of tiger survivor bass tab, eye of tiger bass tab, Survivor - Eye of the Tiger
Survivor - Eye Of The Tiger için Kullanıcı Görüşleri

Henüz buraya yazan çizen olmamış. Yorum yapmak için buraya tıklayabilirsiniz.


Siz de Görüş Bildirin

Yorum yazma alanı Akor Merkezi üyelerine özel bir bölümdür. (Giriş Yap / Üye Ol / Şifremi Hatırlat)


Anket
Akormania soruyor:
En sevdiğiniz ritim hangisi?













Sonuçlar | Sonuçlar & Yorumlar
Yeni Anket | Anketler



AkorMerkezi.com © 2022
Gizlilik Politikası - Kullanım Koşulları - Kurallar - Son Yorumlar - Rastgele

GitarAkor.com kolonisidir. Derleme 0,05 saniye.