Akor Tab Söz Çeviri Anasayfası
Akor|Tab|Söz|Nota Arşivi
Gitar Akorları | Tab,Söz ve Nota Anasayfası | En Yeni Şarkılar | En Popüler Şarkılar | Akor Cetveli

Bilgiler
 
Seslendiren ve Şarkı: Teoman - Bak Hayatına
Biçim: TAB - HİÇBİRİ
Tarih: 23 Haziran 2011 Perşembe
Gönderen: dj soundream
Toplam Okuyan: 9.730 kişi
Bu Ay Okuyan: 11 kişi
Bu Hafta Okuyan: 15 kişi
 
Beğendiniz mi? Bak Hayatına Tab sayfasını Şimdi paylaşın:

Teoman - Bak Hayatına - Tab


Puanlama:
 (8 kişi)

Bak Hayatına şarkısının diğer versiyonlarına bakın >>

Metin boyutu: ( + Büyült ) ( - Küçült)   
-----------------------------E
0---0---0---0----------------B
9---7---5---2----------------G
-----------------------------D
-----------------------------A
-----------------------------E

-----------------------------E
-0---0---0---0---------------B
10---9---7---5---------------G
-----------------------------D
-----------------------------A
-----------------------------E

-----------------------------E
0---0---0---0----------------B
9---7---5---4----------------G
-----------------------------D
-----------------------------A
-----------------------------E

-----------------------------E
-----------------------------B
9-9--7-7-7--5-5--2-2-2-------G  X2
-----------------------------D
-----------------------------A
-----------------------------E


-----------------------------E
-----------------------------B
10-10--9-9-9--7-7--5-5-5-----G
-----------------------------D
-----------------------------A
-----------------------------E


-----------------------------E
-----------------------------B
9-9--7-7-7--5-5--4-4-4-------G
-----------------------------D
-----------------------------A
-----------------------------E
Bak Hayatına Tab, AkorMerkezi.com'da yayınlanmıştır.
http://www.akormerkezi.com


İçerik Kısa Linki:


Beğendiniz mi? Bak Hayatına Tab sayfasını Şimdi paylaşın:


Bak Hayatına şarkısı için amatör kayıtları dinleyin: (Siz de Ekleyin)

Bak Hayatına Tab için Komoçotoko'dan Gelenler
Aramalar: teoman bak akor, teoman bateri, teoman bak hayatına solo, Teoman - Bak Hayatına, bak hayatına, teoman bak hayatına gitar akorları, bak hayatına teoman, teoman bak hayatına bateri notaları, teoman bak hayatına bass tab, teoman bak hayatna
Teoman - Bak Hayatına için Kullanıcı Görüşleri

teşekkürler..


Bu Yoruma Cevap Ver
dj soundream | 28 Haziran 2011 Salı 16:28
başarılı.


Bu Yoruma Cevap Ver
merterci | 27 Haziran 2011 Pazartesi 19:34


Siz de Görüş Bildirin

Yorum yazma alanı Akor Merkezi üyelerine özel bir bölümdür. (Giriş Yap / Üye Ol / Şifremi Hatırlat)





Anket
olicityFAN soruyor:
Hangi Piyano Daha İyi?









Sonuçlar | Sonuçlar & Yorumlar
Yeni Anket | Anketler




Radyo Dinle
AkorMerkezi.com © 2018
Gizlilik Politikası - Kullanım Koşulları - Kurallar - Son Yorumlar - Rastgele

GitarAkor.com kolonisidir. Derleme 0,03 saniye.