Akor Tab Söz Çeviri Anasayfası
Akor|Tab|Söz|Nota Arşivi
Gitar Akorları | Tab,Söz ve Nota Anasayfası | En Yeni Şarkılar | En Popüler Şarkılar | Akor Cetveli

Bilgiler
 
Seslendiren ve Şarkı: Teoman - Zamparanın Ölümü
Biçim: Bass Tab, Bass Gitar Tab -
Tarih: 4 Mart 2005 Cuma
Gönderen: wolwera
Toplam Okuyan: 4.133 kişi
Bu Ay Okuyan: 38 kişi
Bu Hafta Okuyan: 4 kişi
 
Beğendiniz mi? Zamparanın Ölümü Bass Tab sayfasını Şimdi paylaşın:

Teoman - Zamparanın Ölümü - Bass Tab


Puanlama:
 (1 kişi)

Zamparanın Ölümü şarkısının diğer versiyonlarına bakın >>

Metin boyutu: ( + Büyült ) ( - Küçült)   
Giriş,Dize,Bitiş
|-------------------------------------|----------|
|-------------------------------------|----------|
|-4--4---------------------1--1---1-4-|----------|
|-------5-5-5-1-1-1-5-5-5-------1-----|-5-5-5--5-|

Bazı yerlerde son bölüm şöyle:
|------------|        |----------|
|------------|  veya  |----------|
|-0-1-1--0-1-|        |--------1-|
|------------|        |-5-5-5----|

Ön Nakarat:
|------------------------------------------------|
|-----------------------------3---2---0------0-0-|  X2
|-1-1-1--0-1-3--3-3-3--0-1-3--------------1------|
|------------------------------------------------|

|------------------------------------------------|
|-----------------------------------1/7----------|
|-1-1-1--0-1-3--3-3-3--0-1-3--0------------------|
|------------------------------------------------|

Nakarat:
|------------------------------|  
|------------------------------|  X2
|-5-5-5-5----------------------|
|----------5-5---5-5-5-5-5-5-5-|

|-----------------|----------------|
|-----------------|----------------|
|-----------------|-3--3-3-3-3-3-3-|
|--3--3-3-3-3-3-3-|----------------|

|-----------------------------|
|-----------------------------|  X3
|-5-5-5-5---------------------|
|----------5-5--5-5-5-5-5-5-5-|

|-----------------|----------------|----------|
|-----------------|----------------|----------|
|-----------------|-3--3-3-3-3-3-3-|--5-------|
|--3--3-3-3-3-3-3-|----------------|----------|

Bu tabını son albümdeki DÜŞÜNME isimli parça için de
kullanabilirsiniz

Zamparanın Ölümü Bass Tab, AkorMerkezi.com'da yayınlanmıştır.
http://www.akormerkezi.com


İçerik Kısa Linki:


Beğendiniz mi? Zamparanın Ölümü Bass Tab sayfasını Şimdi paylaşın:


Zamparanın Ölümü Bass Tab için Komoçotoko'dan Gelenler
Aramalar: zamparanın ölümü teoman, zamparanin olumu teoman parcasi, teoman kelimeler guitar pro tab, zamparanin olumu bass akor, bas gitar tab, teoman kelimeler guitar pro, zamparanın ölümü solo tab, zamparanın ölümü ritim, Teoman tab, zamparanın ölümü gitar notaları
Teoman - Zamparanın Ölümü için Kullanıcı Görüşleri

guitar pro tabı yok mu bu şarkının ?


Bu Yoruma Cevap Ver
Sefailhan | 4 Kasım 2011 Cuma 18:23
çok güzel eline sağlık.


Bu Yoruma Cevap Ver
cheres | 18 Eylül 2007 Salı 12:57


Siz de Görüş Bildirin

Yorum yazma alanı Akor Merkezi üyelerine özel bir bölümdür. (Giriş Yap / Üye Ol / Şifremi Hatırlat)


Anket
OMGod soruyor:
Gitarı genellikle hangi ritimle çalarsınız ?













Sonuçlar | Sonuçlar & Yorumlar
Yeni Anket | Anketler



AkorMerkezi.com © 2022
Gizlilik Politikası - Kullanım Koşulları - Kurallar - Son Yorumlar - Rastgele

GitarAkor.com kolonisidir. Derleme 0,03 saniye.