Akor Tab Söz Çeviri Anasayfası
Akor|Tab|Söz|Nota Arşivi
Gitar Akorları | Tab,Söz ve Nota Anasayfası | En Yeni Şarkılar | En Popüler Şarkılar | Akor Cetveli

Bilgiler
 
Seslendiren ve Şarkı: Türk Sanat Müziği - Duydum Ki Unutmuşsun
Biçim: TAB -
Tarih: 01 Mayıs 2003 Perşembe
Gönderen: Ege____
Toplam Okuyan: 55.637 kişi
Bu Ay Okuyan: 444 kişi
Bu Hafta Okuyan: 35 kişi
 
Beğendiniz mi? Duydum Ki Unutmuşsun Tab sayfasını Şimdi paylaşın:

Türk Sanat Müziği - Duydum Ki Unutmuşsun - Tab


Puanlama:
 (23 kişi)

Duydum Ki Unutmuşsun şarkısının diğer versiyonlarına bakın >>

Metin boyutu: ( + Büyült ) ( - Küçült)   
E-----------------------------------------------------------
B-----------------------------------------4-2-----2---------
G--3-4-3-1----------------------3-4-1-3-4-----3-4---4-3-1-3-
D----------4-3-1-3-4-3-1------------------------------------
A------------------------4-2-1------------------------------
E-----------------------------------------------------------

E------------------------------------------------------------
B------------------------------------------------------------
G-3-4-3-1----------------------------------------------------
D---------4-3-1-1-1-4-3-4-3-1 1-2-1---------1-4-3-1----------
A-----------------------------------4-2-4-1--------4-2-1-2-1-
E------------------------------------------------------------

E-------------------------------------------------------------------------
B-------------------------------------------------------------------------
G-------------------------------------------------------------------------
D-3-3-4-4-4-4-3-4-3-------3-4-3-1---1---------------1-1-1-4-3-1-----------
A-------------------4-2-1---------4---4-2-2-2-2-1----------------4-2-1-2-1
E-------------------------------------------------4-----------------------
Duydum Ki Unutmuşsun Tab, AkorMerkezi.com'da yayınlanmıştır.
http://www.akormerkezi.com


İçerik Kısa Linki:


Beğendiniz mi? Duydum Ki Unutmuşsun Tab sayfasını Şimdi paylaşın:


Duydum Ki Unutmuşsun şarkısı için amatör kayıtları dinleyin: (Siz de Ekleyin)

Duydum Ki Unutmuşsun Tab için Komoçotoko'dan Gelenler
Aramalar: duydum ki unutmuşsunu derleyen ve notaya alan, duydum ki unutmuşsun gitar, duydum ki unutmuşsun gitar solo ındir, duydum ki unutmuşsun akor orjinal, duydum ki unutmuşsun akor notaları, duydum ki unutmuşsun şarkı tabları, duydum ki unutmuşsun solo gitar, akor merkezi duydum ki unutmuşsun, duydum ki unutmuşsun gitar notalar, türkçe solo tabları
Türk Sanat Müziği - Duydum Ki Unutmuşsun için Kullanıcı Görüşleri

olmamış bence


Bu Yoruma Cevap Ver
Sm3aGoLL | 27 Ekim 2012 Cumartesi 12:33
29 Mayıs 2011 Pazar tarihinde HayaletGitarist yazmıştı:
birde mi kürdi den calın daha güzel ve orjinal ton alırsınız
Hocam merhaba, 2 sorum olacak, 1.si yukarıdaki dizilişin gamı ve tonu nedir?
2. aynı şarkıyı mi majör kürdi çalabilmak için hangi parmak pozisyonu ile başlamalıyız.


Bu Yoruma Cevap Ver
ben.bilen | 03 Haziran 2011 Cuma 10:37
birde mi kürdi den calın daha güzel ve orjinal ton alırsınız


Bu Yoruma Cevap Ver
HayaletGitarist | 29 Mayıs 2011 Pazar 10:30
bu parça kurdi makamındadır. doğru gamdan, doğru dizmiş.
olmamış diyen arkadaşların mangacı, emra aydıncı liseli tayfa olduğu hemen ortaya çıkıyor.

kehkehkeh...


Bu Yoruma Cevap Ver
nikniknikerek | 07 Mart 2011 Pazartesi 02:41
ben bunu 7 sene önce bulmustum ozamam bu sayfayi bilmeyidim ondan veremeydim


Bu Yoruma Cevap Ver
Codename95 | 20 Nisan 2008 Pazar 19:19
Hocam iyi, güzel olmuş, sağol, ama bir de arpej hazırlasaysın bunun için çok da güzel olacaktı. Sitede vokalin notalarını buluyoruz hep. Arpej hazurlasaydın ya da kendi yorumunla birşeyler yapsaydın daha iyi olurdu bence. Ama teşekkürler.


Bu Yoruma Cevap Ver
feldrim | 20 Mayıs 2007 Pazar 18:44
spr


Bu Yoruma Cevap Ver
da_ha_ka | 23 Nisan 2007 Pazartesi 17:26
yaw bu şarkını klibinde arpejle giriyo solo.süperdi.onu nerden bulcam yaw.bilenler lütfen msnim:ulas-tore@hotmail.com saygılar...


Bu Yoruma Cevap Ver
toreulas | 25 Kasım 2006 Cumartesi 23:12
bence olmamıs ince miden baslar bu sarkı bukadar kalına gerek yok en kalın telıde re telı olması lazım kulaga daha hos gelıo.ısteyen varsa mail atsın ben yollıym tabı


Bu Yoruma Cevap Ver
üye-silinmiş | 02 Ekim 2006 Pazartesi 22:29
ya hocam iyi olmusta niye akorlar ve sözler yok..kulağu olan herkes cıkarıyor zaten bunları..?????


Bu Yoruma Cevap Ver
osmanozturk | 08 Eylül 2006 Cuma 19:06
EH İŞTE


Bu Yoruma Cevap Ver
delidus_hakan | 08 Ekim 2005 Cumartesi 21:18
süper


Bu Yoruma Cevap Ver
teomania | 08 Ekim 2005 Cumartesi 20:56


Siz de Görüş Bildirin

Yorum yazma alanı Akor Merkezi üyelerine özel bir bölümdür. (Giriş Yap / Üye Ol / Şifremi Hatırlat)


Anket
Batuhan12 soruyor:
Gece Grubunun Yeni Parçası Derbeder'i Nasıl Buldunuz?











Sonuçlar | Sonuçlar & Yorumlar
Yeni Anket | Anketler




Radyo Dinle
AkorMerkezi.com © 2020
Gizlilik Politikası - Kullanım Koşulları - Kurallar - Son Yorumlar - Rastgele

GitarAkor.com kolonisidir. Derleme 0,05 saniye.