Akor Tab Söz Çeviri Anasayfası
Akor|Tab|Söz|Nota Arşivi
Gitar Akorları | Tab,Söz ve Nota Anasayfası | En Yeni Şarkılar | En Popüler Şarkılar | Akor Cetveli

Bilgiler
 
Seslendiren ve Şarkı: Umut Kaya - Gül Güzeli
Biçim: TAB - FULL
Tarih: 21 Ağustos 2013 Çarşamba
Gönderen: Mezarkabul54
Toplam Okuyan: 4.206 kişi
Bu Ay Okuyan: 118 kişi
Bu Hafta Okuyan: 8 kişi
 
Beğendiniz mi? Gül Güzeli Tab sayfasını Şimdi paylaşın:

Umut Kaya - Gül Güzeli - Tab

  (versiyon 5)
Puanlama:
 (2 kişi)

Gül Güzeli şarkısının diğer versiyonlarına bakın >>

Metin boyutu: ( + Büyült ) ( - Küçült)   

Kalın mi ile çalınıyor solo : 

--3--11--11--10--10--10--8--8--8--7--7  

--3--11--11--10--10--10--8--8--8--7--7

--3--10--10--8--8--8--7--7--7--4--4--4--3--4--8--7--4--3





-----------------------------------------------
---------------------------------------------
-------------------------------------------
-------------------------------------------
----5-------------6--------------------
----3-------------4--------------------  
 Elini son defa   yanağıma koy


-----------------------------------------------
---------------------------------------------
-------------------------------------------
-----------------------------------------------
----6-----------5------------------------------
----4-----------3----------------------------
İstemiyorsan giderim giderim


-----------------------------------------------
---------------------------------------------
-------------------------------------------
-----------------------------------------------
---5---------------6---------------------------
---3---------------4-------------------------
Serin bir sonbahar akşamında söz


-----------------------------------------------
---------------------------------------------
-------------------------------------------
-----------------------------------------------
--6-------------5------------------------------
--4-------------3----------------------------
İsmini unutur silerim silerim


-----------------------------------------------
---------------------------------------------
-------------------------------------------
-----------------------------------------------
-5----------------------6----------------------
-3----------------------4--------------------
Tuttuğun kalem olsa yüreğinin elleri


-----------------------------------------------
---------------------------------------------
-------------------------------------------
-----------------------------------------------
--6-------------------5----------6------5--------
--4-------------------3----------4------3------
Bir defa daha yazsa bebeğim bebeğim bebeğim



-----------------------------------------------
---------------------------------------------
-------------------------------------------
-----------------------------------------------
-10---------5---6--5---10-----5----6---5--------------
-8----------3---4--3----8-----3----4---3----------
Eğer bir masal perisi girerse rüyalarına

-----------------------------------------------
---------------------------------------------
-------------------------------------------
-----------------------------------------------
-5----6---------------5-3--------------5----------
-3----4---------------3-1--------------3--------
Öldü dersin gül güzeli tılsımını kaybetti









Gül Güzeli Tab, AkorMerkezi.com'da yayınlanmıştır.
http://www.akormerkezi.com


İçerik Kısa Linki:


Beğendiniz mi? Gül Güzeli Tab sayfasını Şimdi paylaşın:


Gül Güzeli Tab için Komoçotoko'dan Gelenler
Aramalar: umut kaya gül güzeli tab, gül güzeli nasıl çalınır, gul guzeli tab, gül güzeli, umut kaya gul huzeli tab, gul guzeli akor tab, umut kaya, umut kaya gül güzeli akor tab, umut kaya gül güzeli akor akor, gül güzeli tab umut kaya
Umut Kaya - Gül Güzeli için Kullanıcı Görüşleri

Henüz buraya yazan çizen olmamış. Yorum yapmak için buraya tıklayabilirsiniz.


Siz de Görüş Bildirin

Yorum yazma alanı Akor Merkezi üyelerine özel bir bölümdür. (Giriş Yap / Üye Ol / Şifremi Hatırlat)


Anket
gitaristOkan soruyor:
İbanez Aeg10e Marka Gitarımı Satmayı Düşünüyorum Sizce ?







Sonuçlar | Sonuçlar & Yorumlar
Yeni Anket | Anketler



AkorMerkezi.com © 2022
Gizlilik Politikası - Kullanım Koşulları - Kurallar - Son Yorumlar - Rastgele

GitarAkor.com kolonisidir. Derleme 0,05 saniye.