Akor Tab Söz Çeviri Anasayfası
Akor|Tab|Söz|Nota Arşivi
Gitar Akorları | Tab,Söz ve Nota Anasayfası | En Yeni Şarkılar | En Popüler Şarkılar | Akor Cetveli

Bilgiler
 
Seslendiren ve Şarkı: Zakkum - Ben Böyle Değildim
Biçim: TAB - INTRO
Tarih: 03 Şubat 2013 Pazar
Gönderen: ozzy21
Toplam Okuyan: 4.788 kişi
Bu Ay Okuyan: 73 kişi
Bu Hafta Okuyan: 15 kişi
 
Beğendiniz mi? Ben Böyle Değildim Tab sayfasını Şimdi paylaşın:
DİKKAT!
Ben Böyle Değildim Tab sayfasını düzgün görüntüleyemiyor olabilirsiniz.
Eğer böyle bir sıkıntınız varsa tıklayın.

Zakkum - Ben Böyle Değildim - Tab


Puanlama:
 (7 kişi)

Ben Böyle Değildim şarkısının diğer versiyonlarına bakın >>

Metin boyutu: ( + Büyült ) ( - Küçült)   

       Am              Am               Dm                 Dm       F           E
e|---------------|--------------|----------------------|-------------------------------|
B|---------------|--------------|----------------------|-------------------------------|  
G|---------------|--------------|----------------------|-------------------------------|   
D|---------------|--------------|-----0-0-0--0-2-0---0-|-----0-0-0--0-2-0-------0------|   
A|---3-2-2-0--0--|---3-2-2-0--0-|-2-3--------------3---|-2-3--------------3-3--3-3--2-2|  
E|-0-------------|-0------------|----------------------|-------------------------------| 


       Am              Am               Dm                 Dm       F           E         E
e|---------------|--------------|----------------------|-------------------------------|---------------------|
B|---------------|--------------|----------------------|-------------------------------|---------------------|
  
G|---------------|--------------|----------------------|-------------------------------|---------------------|
   
D|---------------|--------------|-----0-0-0--0-2-0---0-|-----0-0-0--0-2-0-------0------|3-2-0-2-0-0----------|
   
A|---3-2-2-0--0--|---3-2-2-0--0-|-2-3--------------3---|-2-3--------------3-3--3-3--2-2|---------3-3-2-3-2-0-|
 
E|-0-------------|-0------------|----------------------|-------------------------------|---------------------|
 
Ben Böyle Değildim Tab, AkorMerkezi.com'da yayınlanmıştır.
http://www.akormerkezi.com


İçerik Kısa Linki:


Beğendiniz mi? Ben Böyle Değildim Tab sayfasını Şimdi paylaşın:


Ben Böyle Değildim Tab için Komoçotoko'dan Gelenler
Aramalar: zakkum ben böyle, zakkum ben böyle değildim gitar akorları, ben böyle değildim gitar akorları, zakkum ben böyle değildim ritim akor, ben böyle değildim gitar cover, Ben böyle değildim akor merkezi, zakkum, ben böyle deği̇ldi̇m akororor, ben byle, ben boyle değildim tab akoru
Zakkum - Ben Böyle Değildim için Kullanıcı Görüşleri

Henüz buraya yazan çizen olmamış. Yorum yapmak için buraya tıklayabilirsiniz.


Siz de Görüş Bildirin

Yorum yazma alanı Akor Merkezi üyelerine özel bir bölümdür. (Giriş Yap / Üye Ol / Şifremi Hatırlat)


Anket
__BaNNeD__ soruyor:
Sizce hangi şarkı?










Sonuçlar | Sonuçlar & Yorumlar
Yeni Anket | Anketler




Radyo Dinle
AkorMerkezi.com © 2019
Gizlilik Politikası - Kullanım Koşulları - Kurallar - Son Yorumlar - Rastgele

GitarAkor.com kolonisidir. Derleme 0,03 saniye.