Akor Tab Söz Çeviri Anasayfası
Akor|Tab|Söz|Nota Arşivi
Gitar Akorları | Tab,Söz ve Nota Anasayfası | En Yeni Şarkılar | En Popüler Şarkılar | Akor Cetveli

Bilgiler
 
Seslendiren ve Şarkı: Zakkum - Hipokondriyak
Biçim: TAB - HİÇBİRİ
Tarih: 15 Aralık 2007 Cumartesi
Gönderen: DoKToR_TiLKi
Toplam Okuyan: 8.950 kişi
Bu Ay Okuyan: 75 kişi
Bu Hafta Okuyan: 7 kişi
 
Beğendiniz mi? Hipokondriyak Tab sayfasını Şimdi paylaşın:
DİKKAT!
Hipokondriyak Tab sayfasını düzgün görüntüleyemiyor olabilirsiniz.
Eğer böyle bir sıkıntınız varsa tıklayın.

Zakkum - Hipokondriyak - Tab


Puanlama:
 (5 kişi)

Hipokondriyak şarkısının diğer versiyonlarına bakın >>

Metin boyutu: ( + Büyült ) ( - Küçült)   
Sanatçı..: Zakkum
Albüm....: Zehr-i Zakkum
Şarkı....: Hipokondriyak
Tab......: DoKToR_TiLKi (doktortilki@hotmail.com)



bir iki üç dört beş altı yedi sekiz

e|-----6h0--6h0--6h0--6h0---}
B|--------------------------}
G|--------------------------} riff1 şarkı boyunca devam ediyor.
D|--------------------------}
A|--------------------------}
E|--------------------------}

dokuz on ...

e|------------------------------------------------| }
B|------------------------------------------------| }
G|------------------------------------------------| }
D|------------------------------------------------| }  riff2 
A|------------------------------------------------| }
E|----5---------13----------11----------5---------| }

her birliktelik, kalbinin emzirecegi bir yeni bebektir.

once emeklemeyi, sonra yurumeyi ogretmen gerekir..

kalbindeki sutu tuketmediler mi?

bazen hic baslamamasi, bir gun bitmesinden iyidir..

cunku beraberlik yaslanirken, bir terkedir genclesir.

seni hic terketmediler mi?


e|--------------------------|}     e|--------------------------|}   }
B|--------------------------|}     B|--------------------------|}   }
G|--10-----8 ----11---------|}     G|---6 ----5 ----6----------|}   }
D|--10X3---8X3---11---------|} X2  D|---6X3---5X3---6----------|}x2 }riff3 X4
A|--8 -----6 ----9 ---------|}     A|---4 ----3 ----4----------|}   }
E|--------------------------|}     E|--------------------------|}   }


------------{riff2}-------------


aslinda dostluklar da kardanadam gibidir.. 

eriyecekleri bile bile insa edilir..

kapim neden hic calmiyor artik?

fotograflardaki insanlar hatirliyor mu beni? isimleri neydi?

bunların yuzleri cok tanidik.. yalniz kalmak.. bir ilac midir? yoksa hastaligin ta kendisi mi? 

isigi gorunce karanliga kaciyorum hemen, bocekkkler gibi.. 

bir seye cok uzun sure bakarsan, onu gormemeye basliyorsun. 

hayat, keske bu kadar etobur olmasaydi..


e|-------------------------------------------------------------------------------|
B|-------------------------------------------------------------------------------|
G|------10 ---8 ---6 ---5 -----10 ----8 ---6 ---5 ----5 ---6 ---5 ---6 ----------|
D|------10X3--8X6--6X3--5X6----10X3---8X6--6X3--5X6---5X3--6X6--5X3--6X6---------|
A|------ 8 ---6 ---4 ---3 ----- 8 ----6 ---4 ---3 ----3 ---4 ---3 ---4 ----------|
E|-------------------------------------------------------------------------------|

iste sen..                       kurbanlarindan korkan    kanli zalim bicak..

e|-------------------------------------------------------------------------------|
B|-------------------------------------------------------------------------------|
G|------10 ---8 ---6 ---5 -----10 ----8 ---6 ---5 ----5 ---6 ---5 ---6 ----------|
D|------10X3--8X6--6X3--5X6----10X3---8X6--6X3--5X6---5X3--6X6--5X3--6X6---------|
A|------ 8 ---6 ---4 ---3 ----- 8 ----6 ---4 ---3 ----3 ---4 ---3 ---4 ----------|
E|-------------------------------------------------------------------------------|

sen..                       kendi golgesinden bile korkan   bir paranoyak..

e|--------------------------------------------------------------------|
B|--------------------------------------------------------------------|
G|-----------10 ---8 ---6 ---5 --------5 ---6 ---5 ---6 ------8 ------|
D|-----------10X3--8X6--6X3--5X6-------5X3--6X6--5X3--6X6-----8X12----|
A|----------- 8 ---6 ---4 ---3 --------3 ---4 ---3 ---4 ------6 ------|
E|--------------------------------------------------------------------|

bir hipokondriyak..            bir hipokondriyak..

                                                                                                       e|-----
---------------------------------------------------------------------------|
B|--------------------------------------------------------------------------------|
G|--10 --8 --6 --5 ---10 --8 --6 ---5 ---5 --6 --5 --6 ----10 --8 ---6 ---5 ------|
D|--10X3-8X6-6X3-5X6--10X3-8X6-6X3--5X6--5X3-6X6-5X3-6X6---10X3-8X6--6X3--5X6-----|
A|-- 8 --6 --4 --3 ---8 --6 ---4 ---3 ---3 --4 --3 --4 ---- 8 --6 ---4 ---3 ------|
E|--------------------------------------------------------------------------------|

sen   kirik cam ustunde yalinayak..      ve       cirilciplak..   bir hipokondriyak..


----------{riff3}------------ ( sonuna kadar çalıyo )

bir hipokondriyak..
bir paranoyak..
bir hipokondriyak..
bir hipokondriyak..
bir paranoyak...
bir hipokondriyak...
kalbi coktan iflas etmis kimsesiz bir kardiyak..
yalınayak ve çırılçıplak..
işte sen..
bir paranoyak..
bir hipokondriyak..
bir hipokondriyak..
bir paranoyak..
bir hipokondriyak..
bir hipokondriyak..


siz ikiniz siz ikiniz benim hakkımda ne konuşuyosunuz
senin..senin ismin neydi?
her birliktelik kalbin emzireceği bir bebektir önce emeklemeyi sonra yürütmeyi öğretmen gerekir...



riff2 yi böylede çalabilirsiniz=>
e|-----------------------|
B|-----------------------|
G|-----------------------|
D|--------3-----1--------|
A|--1-----------------1--|
E|-----------------------|


{not: ilk tab denemem umarım anlaşılır ve doğru olmuştur..=)}
Hipokondriyak Tab, AkorMerkezi.com'da yayınlanmıştır.
http://www.akormerkezi.com


İçerik Kısa Linki:


Beğendiniz mi? Hipokondriyak Tab sayfasını Şimdi paylaşın:


Hipokondriyak Tab için Komoçotoko'dan Gelenler
Aramalar: zakkum hipokondriyak guitar pro tab, zakkum doktoru, zakkum hipokondriyal gp, Zakkum Hipokondriyak zakkumHipokondriyak cover, zakkum hipokondriyak gp, zakkum hipokondriyak, zakkum, Zakkum - Hipokondriyak, zakkum paranoyak akor, hypokondriyak tab
Zakkum - Hipokondriyak için Kullanıcı Görüşleri

süper şarkıııı


Bu Yoruma Cevap Ver
en_alttaki | 11 Nisan 2008 Cuma 16:38
çok başarılı... şarkıda öyle.. iyi çalışma


Bu Yoruma Cevap Ver
HELLios | 08 Mart 2008 Cumartesi 20:06
ii ya güzel baya


Bu Yoruma Cevap Ver
yalchina | 26 Ocak 2008 Cumartesi 13:16
çok güzel olmuş eline sağlık


Bu Yoruma Cevap Ver
Kilmister | 17 Aralık 2007 Pazartesi 16:55
riff 2 deki 5ler 6 olcak yanlış yazmışım


Bu Yoruma Cevap Ver
DoKToR_TiLKi | 17 Aralık 2007 Pazartesi 02:25


Siz de Görüş Bildirin

Yorum yazma alanı Akor Merkezi üyelerine özel bir bölümdür. (Giriş Yap / Üye Ol / Şifremi Hatırlat)


Anket
Berrasp soruyor:
Solo çalmayı seviyorum fakat klasik gitarı henüz tamamen öğrenmedim.Sizce elektroyu alıp soloya onunla mı devam etmeliyim?









Sonuçlar | Sonuçlar & Yorumlar
Yeni Anket | Anketler




Radyo Dinle
AkorMerkezi.com © 2019
Gizlilik Politikası - Kullanım Koşulları - Kurallar - Son Yorumlar - Rastgele

GitarAkor.com kolonisidir. Derleme 0,03 saniye.