Akor Tab Söz Çeviri Anasayfası
Akor|Tab|Söz|Nota Arşivi
Gitar Akorları | Tab,Söz ve Nota Anasayfası | En Yeni Şarkılar | En Popüler Şarkılar | Akor Cetveli

Bilgiler
 
Seslendiren ve Şarkı: Zara - Eklemedir Koca Konak
Biçim: TAB -
Tarih: 4 Şubat 2004 Çarşamba
Gönderen: Ege____
Toplam Okuyan: 9.596 kişi
Bu Ay Okuyan: 405 kişi
Bu Hafta Okuyan: 34 kişi
 
Beğendiniz mi? Eklemedir Koca Konak Tab sayfasını Şimdi paylaşın:

Zara - Eklemedir Koca Konak - Tab


Puanlama:
 (1 kişi)

Eklemedir Koca Konak şarkısının diğer versiyonlarına bakın >>

Metin boyutu: ( + Büyült ) ( - Küçült)   




e|---------------|---------------|
B|---------------|---------------|
G|---------------|---------------|
D|-1-1--4-2--4-1-|-1-1--4-2--4-1-|
A|---------------|---------------|
E|---------------|---------------|

e|-------------------------------------|
B|-------------------------------------|
G|-1-3--1-3-4-6-8-6-4-6-6-3--3-4-3-1---|
D|-----------------------------------4-|
A|-------------------------------------|
E|-------------------------------------|

e|------------------------------------|
B|------------------------------------|
G|-3--4-4-3-3-1-1---1-4-3-1---1-------|
D|----------------4---------4---4-2-1-|
A|------------------------------------|
E|------------------------------------|

e|--------------------------|
B|--------------------------|
G|--------------------------|
D|-2----4-2--1-2-1--2-4-6-8-|
A|----4---------------------|
E|--------------------------|

e|------------------------------------|
B|------------------------------------|
G|-3--4-4-3-3-1-1---1-4-3-1---1-------|
D|----------------4---------4---4-2-1-|
A|------------------------------------|
E|------------------------------------|

e|--------------------------|
B|--------------------------|
G|--------------------------|
D|-2----4-2--1-2--1---------|
A|----4---------------------|
E|--------------------------|


       TayfuN_OrdeR :)


          

Eklemedir Koca Konak Tab, AkorMerkezi.com'da yayınlanmıştır.
http://www.akormerkezi.com


İçerik Kısa Linki:


Beğendiniz mi? Eklemedir Koca Konak Tab sayfasını Şimdi paylaşın:


Eklemedir Koca Konak şarkısı için amatör kayıtları dinleyin: (Siz de Ekleyin)

Eklemedir Koca Konak Tab için Komoçotoko'dan Gelenler
Aramalar: zara eklemedir koca kavak ekleme, eklemedir koca konak zara tab, eklemedi koca konak tab, koca konak, zara eklemedir koca konak, eklemedir koca konak gitar nota, Zara - Eklemedir Koca Konak, koca konak notaları, eklemedir koca kavak nota gitar, eklemedir koca konak gitar notaları
Zara - Eklemedir Koca Konak için Kullanıcı Görüşleri

d 02 2-0 2-3 5-7 5-4 5-3 2-0 2-3 3-2 2-0 0 0-2 2-0
a 3-1 0 0 3-1 0 0 3 3 3-1 0 0-1 3-1 0 0 0
e 3-5 3-5 3


Bu Yoruma Cevap Ver
zonguldakli | 8 Kasım 2010 Pazartesi 16:38
bunu dene BASS-Version

d | | 0 2 2 -0 2-3 5-7 5-4 5-3 2-0 | 2-3 3-2 2-0 0 |
a 3-1 0 0 | 3-1 0 0 | 3 | 3 |
e 3-5 |3-5 | | |


d 0-2 2-0 |
a 3-1 0 | 0-1 3-1 0 0 0
e | 3


Bu Yoruma Cevap Ver
zonguldakli | 8 Kasım 2010 Pazartesi 16:31
Ufak tefek hatalar var ama güzel


Bu Yoruma Cevap Ver
qaryzma | 15 Eylül 2010 Çarşamba 21:17
bu ne ya


Bu Yoruma Cevap Ver
kitpart | 29 Ağustos 2009 Cumartesi 17:45
yanlıışşş


Bu Yoruma Cevap Ver
gfbatilla | 17 Aralık 2007 Pazartesi 22:53


Siz de Görüş Bildirin

Yorum yazma alanı Akor Merkezi üyelerine özel bir bölümdür. (Giriş Yap / Üye Ol / Şifremi Hatırlat)


Anket
ibrahim_iyi soruyor:
Washburn gitarları nasıl buluyorsunuz











Sonuçlar | Sonuçlar & Yorumlar
Yeni Anket | Anketler



AkorMerkezi.com © 2022
Gizlilik Politikası - Kullanım Koşulları - Kurallar - Son Yorumlar - Rastgele

GitarAkor.com kolonisidir. Derleme 0,05 saniye.