Akor Tab Söz Çeviri Anasayfası
Akor|Tab|Söz|Nota Arşivi
Gitar Akorları | Tab,Söz ve Nota Anasayfası | En Yeni Şarkılar | En Popüler Şarkılar | Akor Cetveli

Bilgiler
 
Seslendiren ve Şarkı: Ayna - Gesi Bağları
Biçim: Bass Tab, Bass Gitar Tab - HİÇBİRİ
Tarih: 26 Kasım 2008 Çarşamba
Gönderen: ohara
Toplam Okuyan: 17.827 kişi
Bu Ay Okuyan: 58 kişi
Bu Hafta Okuyan: 6 kişi
 
Beğendiniz mi? Gesi Bağları Bass Tab sayfasını Şimdi paylaşın:

Ayna - Gesi Bağları - Bass Tab


Puanlama:
 (8 kişi)

Gesi Bağları şarkısının diğer versiyonlarına bakın >>

Metin boyutu: ( + Büyült ) ( - Küçült)   

E---------------|---------------|--------------|-
B---------------|---------------|--------------|-
G-2-3-2-0-------|-------0-2-----|-2-3-2-0------|-
D---------------|-3-2-3---------|--------------|-
A---------------|---------------|--------------|-
E---------------|---------------|--------------|-

E----------------------|---------------|----------------
B----------------------|---------------|----------------
G-------0--------------|-2-3-2-0-------|-------0-2------
D-3-2-3---2------------|---------------|-3-2-3----------
A----------------------|---------------|----------------
E----------------------|---------------|----------------

E----------------------|----------------|--------------
B----------------------|----------------|--------------
G-----2----2-3-2-0-----|-------0--------|--------------
D-0-3------------------|-3-2-3---2------|--------------
A----------------------|----------------|--------------
E----------------------|----------------|--------------


Gesi Bağları Bass Tab, AkorMerkezi.com'da yayınlanmıştır.
http://www.akormerkezi.com


İçerik Kısa Linki:


Beğendiniz mi? Gesi Bağları Bass Tab sayfasını Şimdi paylaşın:


Gesi Bağları Bass Tab için Komoçotoko'dan Gelenler
Aramalar: yeni başlayanlar için gesi bağları tab, gesi bagları akor tab, gesi bağları bas tab, gesi agları bass, bass tab sayfasi, Gesi Bağları (, gesi bağları gitar acemi akor, gesi bağları bas tabları, gesi bağları tab gitar, gesi bağları
Ayna - Gesi Bağları için Kullanıcı Görüşleri

10 Aralık 2011 Cumartesi tarihinde cREC yazmıştı:
skandal ya bass 4 telli deilmiydi hadi klasik olsa onda bile bişe çıkmıo
asıl skandal sensin bass 6 tellide olur :)


Bu Yoruma Cevap Ver
seyranlioglu | 11 Ağustos 2012 Cumartesi 08:25
skandal ya bass 4 telli deilmiydi hadi klasik olsa onda bile bişe çıkmıo


Bu Yoruma Cevap Ver
cREC | 10 Aralık 2011 Cumartesi 11:30
bu ne lo


Bu Yoruma Cevap Ver
eskitoprak | 3 Mayıs 2011 Salı 14:53
Bu ne ya :D :S ??


Bu Yoruma Cevap Ver
ege34 | 19 Nisan 2010 Pazartesi 17:27
hacı bu ne hiç olmamış yha :(


Bu Yoruma Cevap Ver
basscolic | 14 Mart 2009 Cumartesi 00:14


Siz de Görüş Bildirin

Yorum yazma alanı Akor Merkezi üyelerine özel bir bölümdür. (Giriş Yap / Üye Ol / Şifremi Hatırlat)


Anket
metalcideli soruyor:
94.5 Rock Fm i dinler misiniz ?












Sonuçlar | Sonuçlar & Yorumlar
Yeni Anket | Anketler



AkorMerkezi.com © 2022
Gizlilik Politikası - Kullanım Koşulları - Kurallar - Son Yorumlar - Rastgele

GitarAkor.com kolonisidir. Derleme 0,05 saniye.