Akor Tab Söz Çeviri Anasayfası
Akor|Tab|Söz|Nota Arşivi
Gitar Akorları | Tab,Söz ve Nota Anasayfası | En Yeni Şarkılar | En Popüler Şarkılar | Akor Cetveli

Bilgiler
 
Seslendiren ve Şarkı: Barış Manço - Ağlama Değmez Hayat
Biçim: Akor, Gitar Akorları - SOLO
Tarih: 07 Ocak 2014 Salı
Gönderen: rectengle
Toplam Okuyan: 1.069 kişi
Bu Ay Okuyan: 23 kişi
Bu Hafta Okuyan: 4 kişi
 
Beğendiniz mi? Ağlama Değmez Hayat Akor sayfasını Şimdi paylaşın:

Barış Manço - Ağlama Değmez Hayat - Akor

  (versiyon 4)
Puanlama:
 (0 kişi)

Ağlama Değmez Hayat şarkısının diğer versiyonlarına bakın >>

Metin boyutu: ( + Büyült ) ( - Küçült)   
D          A       D Bm7    G       D
Rüya gibi her hatıra her yaşantı bana 
D       Bm7     Am7    G          D 
Ne bulduysa kaybetti gönül aşktan yana 
A      Bm7   G     D                   G  
Ömür çiçek kadar narin bir gün kadar kısa 
C       A     D   G     A7        D
Ağlama değmez hayat bu göz yaşlarına 

2------2-------3-------3-------5-------5-------5-------
-3-3-3---3-3-3---5-5-5---5-5-5---7-7-7---7-7-7---------
-------------------------------------------------------
-------------------------------------------------------
-------------------------------------------------------
-------------------------------------------------------

8-7-5-4-5-4-5-2---0-2-3-|-2-0------0-------------------
----------------3-------|------3-2---3-----------------
------------------------|------------------------------
------------------------|------------------------------
------------------------|------------------------------
------------------------|------------------------------
D             A     D   Bm7      G        D 
Her damla yaş oyuk oyuk iz bırakır kalbimde 
D       Bm7    Am7     G             D
Hayat şarap gibidir kederde var neşe de
A      Bm7   G     D                   G  
Ömür çiçek kadar narin bir gün kadar kısa 
C       A     D   G     A7        D
Ağlama değmez hayat bu göz yaşlarına 

Vuruş 4\4 lük ''AA YY AY'' 


Ağlama Değmez Hayat Akor, AkorMerkezi.com'da yayınlanmıştır.
http://www.akormerkezi.com


İçerik Kısa Linki:


Beğendiniz mi? Ağlama Değmez Hayat Akor sayfasını Şimdi paylaşın:


Barış Manço - Ağlama Değmez Hayat KULLANILAN AKORLAR (Beta)
Dx 5 4 2 3 2x 9 7 7 x 22 0 0 2 3 2
A0 0 2 2 2 00 4 x 2 5 05 7 7 6 5 5
Bm7x 0 4 4 3 2x 2 0 2 0 2x 2 0 2 3 2
Gx 10 12 12 12 103 2 0 0 0 33 2 0 0 3 3
Am70 0 2 0 1 3x 0 2 0 1 0x 0 2 2 1 3
C0 3 2 0 1 00 3 5 5 5 33 3 2 0 1 0
A73 x 2 2 2 0x 0 2 0 2 0x 0 2 2 2 3
Şarkıda kullanılan akorların farklı şekillerde basılışlarıdır. (Detaylı bilgi)

Ağlama Değmez Hayat Akor için Komoçotoko'dan Gelenler
Aramalar: google prostitution, aglama degmez hayat bu goz yaslarina
Barış Manço - Ağlama Değmez Hayat için Kullanıcı Görüşleri

Henüz buraya yazan çizen olmamış. Yorum yapmak için buraya tıklayabilirsiniz.


Siz de Görüş Bildirin

Yorum yazma alanı Akor Merkezi üyelerine özel bir bölümdür. (Giriş Yap / Üye Ol / Şifremi Hatırlat)




Anket
OnLyKronoS soruyor:
Stagg a2006 nasıl bir gitar ?









Sonuçlar | Sonuçlar & Yorumlar
Yeni Anket | Anketler




Radyo Dinle
AkorMerkezi.com © 2019
Gizlilik Politikası - Kullanım Koşulları - Kurallar - Son Yorumlar - Rastgele

GitarAkor.com kolonisidir. Derleme 0,02 saniye.