Akor Tab Söz Çeviri Anasayfası
Akor|Tab|Söz|Nota Arşivi
Gitar Akorları | Tab,Söz ve Nota Anasayfası | En Yeni Şarkılar | En Popüler Şarkılar | Akor Cetveli

Bilgiler
 
Seslendiren ve Şarkı: Barış Manço - Dağlar Dağlar
Biçim: TAB - SOLO
Tarih: 9 Kasım 2010 Salı
Gönderen: denizfeneri34
Toplam Okuyan: 12.344 kişi
Bu Ay Okuyan: 122 kişi
Bu Hafta Okuyan: 12 kişi
 
Beğendiniz mi? Dağlar Dağlar Tab sayfasını Şimdi paylaşın:

Barış Manço - Dağlar Dağlar - Tab

  (versiyon 2)
Puanlama:
 (7 kişi)

Dağlar Dağlar şarkısının diğer versiyonlarına bakın >>

Metin boyutu: ( + Büyült ) ( - Küçült)   

e|----------------------------|----------------------------
B|----------0---1----0--------|------------1-1-0-----------
G|--0--2-2----2----------2----|--0-2-2-2------------2------
D|----------------------------|----------------------------
 El le rim le bü yüt tü ğüm    So lar i ken di rilt ti ğim 
e|----------------------------|----------------------------
B|-1-3-3-3--3-1--0------------|-0--1-1--0------------------
G|-----------------------2----|-------------2--------------
   Çi çe ği mi ko par dın sen  El le re ver din
e|---------------------------|-----------------------------
B|-3----1-3-3-3--3-1--0------|-0--1-1--0-------------------
G|-------------------------2-|------------2----------------
   Çi çe ği mi ko par dın sen  El le re ver din
e|-------0------------|------------------------------------
B|--1--3--------3-----|-1--3-3-1---0-1-0-------------------
G|--------------------|-------------------2----------------
  Dağlar dağlar        Kur ban o lam yol ver ge çem
e|---------------------------------------------------------
B|-1--3-3-1----3-1-0-----0-1-1--0--------------------------
G|--------------------2------------2-----------------------
 Sevdiğimi son bir olsun yakından görem

Çalışmalarım hakkında ereştirilerinizi bekliyorum
Dağlar Dağlar Tab, AkorMerkezi.com'da yayınlanmıştır.
http://www.akormerkezi.com


İçerik Kısa Linki:


Beğendiniz mi? Dağlar Dağlar Tab sayfasını Şimdi paylaşın:


Dağlar Dağlar şarkısı için amatör kayıtları dinleyin: (Siz de Ekleyin)

Dağlar Dağlar Tab için Komoçotoko'dan Gelenler
Aramalar: dağlar dağlar solo tab, barış manço solo, daglar daglar tap solo, dağlar dağlar tabs, barış manço dağlar dağlar, barış manço dağlar, dağlar dağlar solo, daglar daglar tab, barış manço dağlar dağlar solo, dağlar dağlar
Barış Manço - Dağlar Dağlar için Kullanıcı Görüşleri

kısmen işe yarar


Bu Yoruma Cevap Ver
cwork | 25 Ağustos 2013 Pazar 14:48
Kardeşim ellerine saglık cok güzel olmuş bir tek daglar daglar kötü ama gerisi cok güzel


Bu Yoruma Cevap Ver
eren52 | 30 Mayıs 2012 Çarşamba 18:48
Bence iğrenç alakası yok


Bu Yoruma Cevap Ver
gitarist_000 | 16 Mart 2012 Cuma 19:41
28 Mart 2011 Pazartesi tarihinde geberteus yazmıştı:
iğrenç bir tab. hatta bence burdan kaldırmalısın bile. Bunu nasıl çalabiliyorsun ve dağlar dağlar solosuna benzetiyosun seni de anlamıs değilim ve de video fln koymanı bekliyorum.
Doğru söylüyorsun dostum,umarım birileri daha iyisini yazarda silinir


Bu Yoruma Cevap Ver
denizfeneri34 | 18 Nisan 2011 Pazartesi 01:10
iğrenç bir tab. hatta bence burdan kaldırmalısın bile. Bunu nasıl çalabiliyorsun ve dağlar dağlar solosuna benzetiyosun seni de anlamıs değilim ve de video fln koymanı bekliyorum.


Bu Yoruma Cevap Ver
geberteus | 28 Mart 2011 Pazartesi 18:52


Siz de Görüş Bildirin

Yorum yazma alanı Akor Merkezi üyelerine özel bir bölümdür. (Giriş Yap / Üye Ol / Şifremi Hatırlat)


Anket
nusret06 soruyor:
Sizce En İyi Grup Hangisi?










Sonuçlar | Sonuçlar & Yorumlar
Yeni Anket | Anketler



AkorMerkezi.com © 2021
Gizlilik Politikası - Kullanım Koşulları - Kurallar - Son Yorumlar - Rastgele

GitarAkor.com kolonisidir. Derleme 0,05 saniye.