Akor Tab Söz Çeviri Anasayfası
Akor|Tab|Söz|Nota Arşivi
Gitar Akorları | Tab,Söz ve Nota Anasayfası | En Yeni Şarkılar | En Popüler Şarkılar | Akor Cetveli

Bilgiler
 
Seslendiren ve Şarkı: Barış Manço - Gülpembe
Biçim: TAB -
Tarih: 6 Haziran 2007 Çarşamba
Gönderen: the cranberries
Toplam Okuyan: 65.863 kişi
Bu Ay Okuyan: 1.945 kişi
Bu Hafta Okuyan: 174 kişi
 
Beğendiniz mi? Gülpembe Tab sayfasını Şimdi paylaşın:

Barış Manço - Gülpembe - Tab


Puanlama:
 (57 kişi)

Gülpembe şarkısının diğer versiyonlarına bakın >>

Metin boyutu: ( + Büyült ) ( - Küçült)   
E----------------------------------------------------------I
B----------------------------------------------------------I
G----------------------------------------------------------I
D----------------------------------------------------------I
A-----------4-2-4-----------2-0-2--------------------------I
E--3-2-0-2---------3-2-0-2---------3-2-0-2--5-4-5--3-2-0-2-I



E------------------------------------------------------------I
B------------------------------------------------------------I
G------------------------------------------------------------I
D------------------------------------------------------------I
A----4-4-5-4-2-4--2-0-2--0-2-4-4-2---------------------------I
E--2-------------------------------5-4-5--4-5-7-5-4-5--3-2-3-I



E---------------------------------------------------------I
B---------------------------------------------------------I
G---------------------------------------------------------I
D---------------------------------------------------------I
A---------------------------------------------------------I
E-2-3-5--3-2-0-2------------------------------------------I
Gülpembe Tab, AkorMerkezi.com'da yayınlanmıştır.
http://www.akormerkezi.com


İçerik Kısa Linki:


Beğendiniz mi? Gülpembe Tab sayfasını Şimdi paylaşın:



Gülpembe Tab için Komoçotoko'dan Gelenler
Aramalar: Bar manço tabış, barış manco gülpenbe akor, Barış Manço - Gülpembe, gülpembe tab akormerkezi, baris manco gulpembe tabi, gülpembe tap, gülpembe akor, tabi tabj, gülpembe gitar notaları clasic, gülpembe tab kolay
Barış Manço - Gülpembe için Kullanıcı Görüşleri

İdare eder işte ama güzel


Bu Yoruma Cevap Ver
zAzaa | 18 Nisan 2013 Perşembe 18:07
idare eder ty bro


Bu Yoruma Cevap Ver
r3aLMaRDIN | 6 Ocak 2009 Salı 20:22
&ccedil;ok acemice ses değişimlerini farketmemişsin.. Ben orjinal notalarından &ccedil;evirip kodum editorun onayını bekliyo ordan bakabilirsiniz gelince<br/>


Bu Yoruma Cevap Ver
Burak001 | 31 Ağustos 2008 Pazar 18:49
&ccedil;ek teşekk&uuml;rler arkadaşım


Bu Yoruma Cevap Ver
blackkkkk | 6 Ağustos 2008 Çarşamba 19:22
ben bunu kendim &ccedil;ıkardım l&uuml;tfen iftira atmayalım emeğe de mi saygınız yok. al bu da devamı<br/>
A-----0--2-2-0-------0-2-4-4-2-0----0-2-2-0-2-4-2-4-------------0-2-2-0-------0-2-4-4-2-0------0-2-2-0----0----<br/>
E--4------------4-2------------------4--------------------------------4-------------4-2-------------------4-------------4----4-2<br/>
g&uuml;z yağmurlarıyla..


Bu Yoruma Cevap Ver
the cranberries | 2 Temmuz 2008 Çarşamba 16:16
arkadaşlar &ccedil;ok gusel olmus..


Bu Yoruma Cevap Ver
koray fender | 16 Haziran 2008 Pazartesi 22:59
benim başka siteye g&ouml;nderdiğim tabı kopyalayıp buraya yapıştırmışlar yaaaa &ccedil;alıntı bu...neyse


Bu Yoruma Cevap Ver
Arifx | 4 Haziran 2008 Çarşamba 14:08
güzel


Bu Yoruma Cevap Ver
elektro_b2k | 24 Eylül 2007 Pazartesi 17:48
güzel güzel !!


Bu Yoruma Cevap Ver
eeeemreeee | 2 Temmuz 2007 Pazartesi 10:17
eh işte..!! idare ederrr


Bu Yoruma Cevap Ver
utanmaz sıpa | 20 Haziran 2007 Çarşamba 22:59


Siz de Görüş Bildirin

Yorum yazma alanı Akor Merkezi üyelerine özel bir bölümdür. (Giriş Yap / Üye Ol / Şifremi Hatırlat)


Anket
Cioross soruyor:
İbanez V72ece Mi Yoksa Ibanez Aeg8e Mi?







Sonuçlar | Sonuçlar & Yorumlar
Yeni Anket | Anketler



AkorMerkezi.com © 2022
Gizlilik Politikası - Kullanım Koşulları - Kurallar - Son Yorumlar - Rastgele

GitarAkor.com kolonisidir. Derleme 0,06 saniye.