Akor Tab Söz Çeviri Anasayfası
Akor|Tab|Söz|Nota Arşivi
Gitar Akorları | Tab,Söz ve Nota Anasayfası | En Yeni Şarkılar | En Popüler Şarkılar | Akor Cetveli

Bilgiler
 
Seslendiren ve Şarkı: Cahit Berkay - Çiçek Abbas
Biçim: TAB - HİÇBİRİ
Tarih: 29 Eylül 2012 Cumartesi
Gönderen: claret
Toplam Okuyan: 10.518 kişi
Bu Ay Okuyan: 215 kişi
Bu Hafta Okuyan: 30 kişi
 
Beğendiniz mi? Çiçek Abbas Tab sayfasını Şimdi paylaşın:

Cahit Berkay - Çiçek Abbas - Tab


Puanlama:
 (4 kişi)

Çiçek Abbas şarkısının diğer versiyonlarına bakın >>

Metin boyutu: ( + Büyült ) ( - Küçült)   
E|-5---5-5--9---7---7-----------------5------------------
B|--------------------9-7-5---7---7-7-----9---9-9-7-5----



E|-5---5-5--9---7---7------------------------------------
B|--------------------9-7-5---7---7-9-5---7--------------




G|-5-5-7-----------------------5---7-------------9-7-----
B|-------9-7-5---7---7-5-7-9---------9-7-5---7-----------




G|-5-5-7-----------------------5---7-------------7-------
B|-------9-7-5---7---7-5-7-9---------9-7-5---7-----7-----
Çiçek Abbas Tab, AkorMerkezi.com'da yayınlanmıştır.
http://www.akormerkezi.com


İçerik Kısa Linki:


Beğendiniz mi? Çiçek Abbas Tab sayfasını Şimdi paylaşın:


Çiçek Abbas Tab için Komoçotoko'dan Gelenler
Aramalar: çiçek abbas tab orjinal ton, çiçek abbas, çiçek abbas arpej tab, çiçek abbas intro akor, çiçek abbas gıtar solo notaları, çiçek+abbas+tab, cicek abbas tabs, çiçek abbas akorları, cicekci abbas tab, çiçek abbas tap
Cahit Berkay - Çiçek Abbas için Kullanıcı Görüşleri

Henüz buraya yazan çizen olmamış. Yorum yapmak için buraya tıklayabilirsiniz.


Siz de Görüş Bildirin

Yorum yazma alanı Akor Merkezi üyelerine özel bir bölümdür. (Giriş Yap / Üye Ol / Şifremi Hatırlat)


Anket
Anasiril soruyor:
Stagg A2006-Cs Elektro Akustik Gitar Nasıl Bi Gitar?










Sonuçlar | Sonuçlar & Yorumlar
Yeni Anket | Anketler



AkorMerkezi.com © 2024
Gizlilik Politikası - Kullanım Koşulları - Kurallar - Son Yorumlar - Rastgele

GitarAkor.com kolonisidir. Derleme 0,05 saniye.