Akor Tab Söz Çeviri Anasayfası
Akor|Tab|Söz|Nota Arşivi
Gitar Akorları | Tab,Söz ve Nota Anasayfası | En Yeni Şarkılar | En Popüler Şarkılar | Akor Cetveli

Bilgiler
 
Seslendiren ve Şarkı: Cahit Berkay - Çiçek Abbas
Biçim: TAB - HİÇBİRİ
Tarih: 9 Aralık 2012 Pazar
Gönderen: i_yasch
Toplam Okuyan: 3.675 kişi
Bu Ay Okuyan: 56 kişi
Bu Hafta Okuyan: 11 kişi
 
Beğendiniz mi? Çiçek Abbas Tab sayfasını Şimdi paylaşın:

Cahit Berkay - Çiçek Abbas - Tab

  (versiyon 2)
Puanlama:
 (2 kişi)

Çiçek Abbas şarkısının diğer versiyonlarına bakın >>

Metin boyutu: ( + Büyült ) ( - Küçült)   

E|-5---5-5--9---7---7-----------------5------------------
B|--------------------9-7-5---7---7-7-----9---9-9-7-5----



E|-5---5-5--9---7---7------------------------------------
B|--------------------9-7-5---7-7-7--9-5---7--------------




E|--------------------7--------------------------------------
B|-------5-7-9---10---9-7-5----------7-7-5-7-9-----------




E|-----------7---------------9-7----------7-----------------------------
B|-------10---9-7-5------7------------10---9-7-5----------7-7-5-7-9-




E|-----------7-------------------------------------------------------
B|-------10---9-7-5------7-7-9-7----------------------------------


ilk denemem tabiki hepsini kendim çıkarmadım umarım beğenirsiniz :)
Çiçek Abbas Tab, AkorMerkezi.com'da yayınlanmıştır.
http://www.akormerkezi.com


İçerik Kısa Linki:


Beğendiniz mi? Çiçek Abbas Tab sayfasını Şimdi paylaşın:


Çiçek Abbas Tab için Komoçotoko'dan Gelenler
Aramalar: cahit berkay tab, çiçek abbas akor merkezi, çiçek abbas fülit notaları, çiçek abbas nota, cahit berkay - çiçek abbas notaları, fulıt notası, çiçek abbas notaları, cahit berkay çicek abbas, akor merkezi çiçek abbas, çiçek abbas 2. nota
Cahit Berkay - Çiçek Abbas için Kullanıcı Görüşleri

E|-----------------------7--------------------------------------
B|-------5-7-9---10--------9-7-5----------7-7-5-7-9-----------

olacak aslında copy paste yapınca düzgün gözüküyor ama sitede niyeyse 7 9 üst üste gelmiş :)


Bu Yoruma Cevap Ver
i_yasch | 9 Aralık 2012 Pazar 19:05


Siz de Görüş Bildirin

Yorum yazma alanı Akor Merkezi üyelerine özel bir bölümdür. (Giriş Yap / Üye Ol / Şifremi Hatırlat)


Anket
St_Anger_cw soruyor:
"Abi uğraşıyorum çabalıyorum 2 yılda sadece ritim atabiliyorum" diyen birine cevap...?











Sonuçlar | Sonuçlar & Yorumlar
Yeni Anket | Anketler



AkorMerkezi.com © 2024
Gizlilik Politikası - Kullanım Koşulları - Kurallar - Son Yorumlar - Rastgele

GitarAkor.com kolonisidir. Derleme 0,05 saniye.