Akor Tab Söz Çeviri Anasayfası
Akor|Tab|Söz|Nota Arşivi
Gitar Akorları | Tab,Söz ve Nota Anasayfası | En Yeni Şarkılar | En Popüler Şarkılar | Akor Cetveli

Bilgiler
 
Seslendiren ve Şarkı: Cahit Berkay - Devlerin Aşkı
Biçim: TAB - SOLO
Tarih: 13 Temmuz 2011 Çarşamba
Gönderen: AlayınaTab
Toplam Okuyan: 8.129 kişi
Bu Ay Okuyan: 71 kişi
Bu Hafta Okuyan: 19 kişi
 
Beğendiniz mi? Devlerin Aşkı Tab sayfasını Şimdi paylaşın:

Cahit Berkay - Devlerin Aşkı - Tab

  (versiyon 3)
Puanlama:
 (6 kişi)

Devlerin Aşkı şarkısının diğer versiyonlarına bakın >>

Metin boyutu: ( + Büyült ) ( - Küçült)   
E-----------------------------------------------------------------------
B-3/5------7-8-7-5------------------------------------------------------
G--------------------6-7-6-4--------------------------------------------  x2
D------------------------------5-7-5-4----------------------------------
A----------------------------------------7-5-7--------------------------

E-----------------------------------------------------------------------
B--------------------------------------------------10----10-------------
G----------5-4---5-4----9-7-7----11-9-9---12-11-11-----------12-12------
D----4-5-7-----7--------------------------------------------------------
A-7---------------------------------------------------------------------

E--------------------12------14-12-12------------------------------------
B-13-12-12--15-13-13---15-15---------------------------------------------
G---------------------------------------12-11-9-12-11---11-9------11-9---
D--------------------------------------------------------------12--------
A------------------------------------------------------------------------

Devlerin Aşkı Tab, AkorMerkezi.com'da yayınlanmıştır.
http://www.akormerkezi.com


İçerik Kısa Linki:


Beğendiniz mi? Devlerin Aşkı Tab sayfasını Şimdi paylaşın:


Devlerin Aşkı şarkısı için amatör kayıtları dinleyin: (Siz de Ekleyin)

Devlerin Aşkı Tab için Komoçotoko'dan Gelenler
Aramalar: devlerin aşkı,, cahit berkay, devlerın askı gıtara solo akoru, devlerin, devlerin aşkı tab solo, cahit berkay 2011 solo dinle, cahit berkay devlerin aşkı tab, Cahit berkay tab, devlerin aşkı gitar tabları, devlerin aşkı çalarken dinlet yapma
Cahit Berkay - Devlerin Aşkı için Kullanıcı Görüşleri

B-3/5------7-8-7-5-
bu kısımdaki 7-8-7 bölümünü bend yaparak çalıyorum süper oluyor ;) şarkı geneli doğru zaten bunu çalarken aralara p.harmonic - vibrato ekle süper olur ;)


Bu Yoruma Cevap Ver
Mohicans | 9 Eylül 2011 Cuma 14:45


Siz de Görüş Bildirin

Yorum yazma alanı Akor Merkezi üyelerine özel bir bölümdür. (Giriş Yap / Üye Ol / Şifremi Hatırlat)


Anket
bareler soruyor:
Yüksek Sadakat'in Hangi Üyesini Daha İyi Buluyorsunuz?










Sonuçlar | Sonuçlar & Yorumlar
Yeni Anket | Anketler



AkorMerkezi.com © 2024
Gizlilik Politikası - Kullanım Koşulları - Kurallar - Son Yorumlar - Rastgele

GitarAkor.com kolonisidir. Derleme 0,03 saniye.