Akor Tab Söz Çeviri Anasayfası
Akor|Tab|Söz|Nota Arşivi
Gitar Akorları | Tab,Söz ve Nota Anasayfası | En Yeni Şarkılar | En Popüler Şarkılar | Akor Cetveli

Bilgiler
 
Seslendiren ve Şarkı: Cahit Berkay - Devlerin Aşkı
Biçim: TAB - SOLO
Tarih: 25 Mart 2012 Pazar
Gönderen: metalistambul
Toplam Okuyan: 3.808 kişi
Bu Ay Okuyan: 51 kişi
Bu Hafta Okuyan: 7 kişi
 
Beğendiniz mi? Devlerin Aşkı Tab sayfasını Şimdi paylaşın:
DİKKAT!
Devlerin Aşkı Tab sayfasını düzgün görüntüleyemiyor olabilirsiniz.
Eğer böyle bir sıkıntınız varsa tıklayın.

Cahit Berkay - Devlerin Aşkı - Tab

  (versiyon 4)
Puanlama:
 (2 kişi)

Devlerin Aşkı şarkısının diğer versiyonlarına bakın >>

Metin boyutu: ( + Büyült ) ( - Küçült)   
E----------------------------------------------------------------------------7-5-5----
B-----7-8-7------------------------------------5-3-3---7--5-5---8-7-7-10-8-8----------
G-7^9-------9-6-7-4------------------------5-4----------------------------------------
D--------------------5-7-4-------------4-5--------------------------------------------
A--------------------------7-5-7---5-7------------------------------------------------E-----------------------
--------------------------------------------------------------






E---------------7-5-5----8-7-7---10-8-8--12-10-10---14-12-12--------------------------B---10-8-8--------------
--------------------------------------------------------------G-----------------------------------------------
--------------------------------------D-----------------------------------------------------------------------
--------------A-------------------------------------------------------------------------------------E---------
----------------------------------------------------------------------------
Devlerin Aşkı Tab, AkorMerkezi.com'da yayınlanmıştır.
http://www.akormerkezi.com


İçerik Kısa Linki:


Beğendiniz mi? Devlerin Aşkı Tab sayfasını Şimdi paylaşın:


Devlerin Aşkı şarkısı için amatör kayıtları dinleyin: (Siz de Ekleyin)

Devlerin Aşkı Tab için Komoçotoko'dan Gelenler
Aramalar: cahit berkay devlerin aşkı akor, devlerin, devlerin aşkı akor solo, cahit berkay, cahit berkay devlerin aşkı solo, Cahit Berkay Devlerin Aşkı tab, devlerin aşkı tab solo, devlerin aski gitar, cahit berkay devlerin aşkı, devlerin aşkı
Cahit Berkay - Devlerin Aşkı için Kullanıcı Görüşleri

yazsanız ıyı olurdu


Bu Yoruma Cevap Ver
ozgur6734 | 9 Temmuz 2014 Çarşamba 18:24


Siz de Görüş Bildirin

Yorum yazma alanı Akor Merkezi üyelerine özel bir bölümdür. (Giriş Yap / Üye Ol / Şifremi Hatırlat)


Anket
star34 soruyor:
Gitar Alırken Neye Önem Verirsiniz ?











Sonuçlar | Sonuçlar & Yorumlar
Yeni Anket | Anketler



AkorMerkezi.com © 2024
Gizlilik Politikası - Kullanım Koşulları - Kurallar - Son Yorumlar - Rastgele

GitarAkor.com kolonisidir. Derleme 0,06 saniye.