Akor Tab Söz Çeviri Anasayfası
Akor|Tab|Söz|Nota Arşivi
Gitar Akorları | Tab,Söz ve Nota Anasayfası | En Yeni Şarkılar | En Popüler Şarkılar | Akor Cetveli

Bilgiler
 
Seslendiren ve Şarkı: Cahit Berkay - Selvi Boylum Al Yazmalım
Biçim: TAB - HİÇBİRİ
Tarih: 24 Mart 2012 Cumartesi
Gönderen: ouzika
Toplam Okuyan: 4.476 kişi
Bu Ay Okuyan: 43 kişi
Bu Hafta Okuyan: 6 kişi
 
Beğendiniz mi? Selvi Boylum Al Yazmalım Tab sayfasını Şimdi paylaşın:

Cahit Berkay - Selvi Boylum Al Yazmalım - Tab

  (versiyon 2)
Puanlama:
 (2 kişi)

Selvi Boylum Al Yazmalım şarkısının diğer versiyonlarına bakın >>

Metin boyutu: ( + Büyült ) ( - Küçült)   
e-----12-11-12-9~~--9---9---------               
B--------------------10---12-12~~-               
G-11~~----------------------------         )
                                           )
e-----------------------------             )x2  
B-12-12-9-10--9-10-12-10-9----             )
G----------------------------- 

e----------------9--------------
B-9-10-12--12-10---12-12---9-10-
G-------------------------------

e----------------------------------------------------
B-9--10-12-10-9-----9-10--9-10-12-10-----------------
G----------------11-------------------11-11--11--11~~

Selvi Boylum Al Yazmalım Tab, AkorMerkezi.com'da yayınlanmıştır.
http://www.akormerkezi.com


İçerik Kısa Linki:


Beğendiniz mi? Selvi Boylum Al Yazmalım Tab sayfasını Şimdi paylaşın:


Selvi Boylum Al Yazmalım Tab için Komoçotoko'dan Gelenler
Aramalar: moğollar selvi boylum al yazmalım akor merkezi, cahit berkay selvi boylum, selvi boylum al yazmalım tab, Cahit Berkay - Selvi Boylum Al Yazmalım, al yazmalım cahit berkay, cahit berkay al yazmalım tab, Cahit berkayAl yazmalim notalari, cahit berkay, selvi boylum al yazmalım akor, Selvi Boylum Al yazmalım
Cahit Berkay - Selvi Boylum Al Yazmalım için Kullanıcı Görüşleri

Henüz buraya yazan çizen olmamış. Yorum yapmak için buraya tıklayabilirsiniz.


Siz de Görüş Bildirin

Yorum yazma alanı Akor Merkezi üyelerine özel bir bölümdür. (Giriş Yap / Üye Ol / Şifremi Hatırlat)


Anket
Oguzhandro soruyor:
Ülkemizde müzik sektörü gelişiyor mu ?









Sonuçlar | Sonuçlar & Yorumlar
Yeni Anket | Anketler



AkorMerkezi.com © 2024
Gizlilik Politikası - Kullanım Koşulları - Kurallar - Son Yorumlar - Rastgele

GitarAkor.com kolonisidir. Derleme 0,05 saniye.