Akor Tab Söz Çeviri Anasayfası
Akor|Tab|Söz|Nota Arşivi
Gitar Akorları | Tab,Söz ve Nota Anasayfası | En Yeni Şarkılar | En Popüler Şarkılar | Akor Cetveli

Bilgiler
 
Seslendiren ve Şarkı: Duman - Belki Alışman Lazım
Biçim: Bass Tab, Bass Gitar Tab - HİÇBİRİ
Tarih: 25 Şubat 2012 Cumartesi
Gönderen: mertna12
Toplam Okuyan: 3.620 kişi
Bu Ay Okuyan: 46 kişi
Bu Hafta Okuyan: 4 kişi
 
Beğendiniz mi? Belki Alışman Lazım Bass Tab sayfasını Şimdi paylaşın:

Duman - Belki Alışman Lazım - Bass Tab

  (versiyon 3)
Puanlama:
 (2 kişi)

Belki Alışman Lazım şarkısının diğer versiyonlarına bakın >>

Metin boyutu: ( + Büyült ) ( - Küçült)   
G-------------------------------------------------------------
D-------------------------------------------------------------
A--00---333---------------------------------------------------
E-------------000----3333-------------------------------------GİTAR 2 KEZ CALDIKTAN SONRA

G-------------------------------------------------------------
D-----------------------------------/--------------------------
A----3333----------------------------/-3------------------------
E---------3333----5555----5555--------/--3---5------------------NAKARAT


G-------------------------------------------------------------
D--------------------- ----------------------------------------
A-00---33--55--66-2X--/--12-12--10-10-9-9-7-7-5-5-3-3-2-2--0-0-2X--(777..-999...)
E--------------------/----------------------------------  ARA SOLO (BURAYA DİKKAT) İSPANYOL YERİ VAR


ARA SOLODAKİ PARANTEZ İÇİNDEKİ YER 2X Lİ SOLOLAR BİTTİKTEN SONRA ARİ BİR NOTA

 ÇALIYOR ORASI ORAYA DİKKAT ORDA KAÇ KERE VURDUGUNU TAM SAYAMADIM AMA SİZ SAYIP
 YAPABİLİRSİNİZ BİR HATAM VARSA ÖZÜR DİLERİM VE HATAMI SOYLEYIN YORUM OLARAK 

BİRLİKTE EN DOGRUYU BULALIM......

Belki Alışman Lazım Bass Tab, AkorMerkezi.com'da yayınlanmıştır.
http://www.akormerkezi.com


İçerik Kısa Linki:


Beğendiniz mi? Belki Alışman Lazım Bass Tab sayfasını Şimdi paylaşın:


Belki Alışman Lazım Bass Tab için Komoçotoko'dan Gelenler
Aramalar: Belki alışman lazım tab, belki alışmam lazım orijinal nota, belki alışman lazım bass tab, belki alışmam lazım bass tab, belki alışman lazım bas tab, belki alışman bas tabı, duman belki alisman lazim, duman duman heyley duman, duman belki alışmam lazım bateri notaları, belki alışmam lazım bateri notaları
Duman - Belki Alışman Lazım için Kullanıcı Görüşleri

Henüz buraya yazan çizen olmamış. Yorum yapmak için buraya tıklayabilirsiniz.


Siz de Görüş Bildirin

Yorum yazma alanı Akor Merkezi üyelerine özel bir bölümdür. (Giriş Yap / Üye Ol / Şifremi Hatırlat)


Anket
buRakilgz soruyor:
Pentakill'İn Hangi Şarkısını Seviyorsunuz ?











Sonuçlar | Sonuçlar & Yorumlar
Yeni Anket | Anketler



AkorMerkezi.com © 2022
Gizlilik Politikası - Kullanım Koşulları - Kurallar - Son Yorumlar - Rastgele

GitarAkor.com kolonisidir. Derleme 0,05 saniye.