Akor Tab Söz Çeviri Anasayfası
Akor|Tab|Söz|Nota Arşivi
Gitar Akorları | Tab,Söz ve Nota Anasayfası | En Yeni Şarkılar | En Popüler Şarkılar | Akor Cetveli

Bilgiler
 
Seslendiren ve Şarkı: Duman - Bu Akşam
Biçim: Bass Tab, Bass Gitar Tab - FULL
Tarih: 31 Ocak 2011 Pazartesi
Gönderen: redbrk
Toplam Okuyan: 7.502 kişi
Bu Ay Okuyan: 76 kişi
Bu Hafta Okuyan: 5 kişi
 
Beğendiniz mi? Bu Akşam Bass Tab sayfasını Şimdi paylaşın:

Duman - Bu Akşam - Bass Tab

  (versiyon 3)
Puanlama:
 (4 kişi)

Bu Akşam şarkısının diğer versiyonlarına bakın >>

Metin boyutu: ( + Büyült ) ( - Küçült)   

BASS TAB:
Giriş:solo gitar var,ardından davul girerken bas :
G|------------------|
D|------------------|
A|-14/------------|
E|------------------|

şeklinde slide yapar daha sonra asıl ritm baslar

SÖZLER - ARALAR - GİTAR SOLO :
G------------------------------------------------------|
D------------------------------------------------------|
A------------------------------------------------------|
E-7--7-7--3--3-3--5--5-5--0--0-0--------------|

G------------------------------------------------------|
D------------------------------------------------------|
A------------------------------------------------------|
E-7--7-7--3--3-3--5--5-5-/12--12-12---------|

G-------------------------------------------------------|
D-------------------------------------------------------|
A-------------------------------------------------------|
E-7--7-7--3--3-3--5--5-5--0--0-0---------------|

G-------------------------------------------------------|
D-------------------------------------------------------|
A-------------------------------------------------------|
E-3--3-3--5--5-5--0--0-0-------------------------|

NAKARAT ( Ben burda bu aksam....)
G-------------------------------------------------------|
D-5--5-5--5--5-5--7--7-7--7--7-7---------------|
A-------------------------------------------------------|
E-------------------------------------------------------|
Bu Akşam Bass Tab, AkorMerkezi.com'da yayınlanmıştır.
http://www.akormerkezi.com


İçerik Kısa Linki:


Beğendiniz mi? Bu Akşam Bass Tab sayfasını Şimdi paylaşın:


Bu Akşam şarkısı için amatör kayıtları dinleyin: (Siz de Ekleyin)

Bu Akşam Bass Tab için Komoçotoko'dan Gelenler
Aramalar: duman ah bass tab songsterr, ---İÇERİM BEN BU AKŞAM----- gitar solo, duman bu aksam gitar notaları, BU AKŞAM BASS, duman içerim ben bu akşam bass, bu akşam bass tab, gitar burda bu akşam nota, duman bu akşam tab, duman tab, bu akşam bas
Duman - Bu Akşam için Kullanıcı Görüşleri

Henüz buraya yazan çizen olmamış. Yorum yapmak için buraya tıklayabilirsiniz.


Siz de Görüş Bildirin

Yorum yazma alanı Akor Merkezi üyelerine özel bir bölümdür. (Giriş Yap / Üye Ol / Şifremi Hatırlat)


Anket
Halleluja soruyor:
Metali oluşturan temel ensturman hangisi?









Sonuçlar | Sonuçlar & Yorumlar
Yeni Anket | Anketler



AkorMerkezi.com © 2022
Gizlilik Politikası - Kullanım Koşulları - Kurallar - Son Yorumlar - Rastgele

GitarAkor.com kolonisidir. Derleme 0,05 saniye.