Akor Tab Söz Çeviri Anasayfası
Akor|Tab|Söz|Nota Arşivi
Gitar Akorları | Tab,Söz ve Nota Anasayfası | En Yeni Şarkılar | En Popüler Şarkılar | Akor Cetveli

Bilgiler
 
Seslendiren ve Şarkı: Duman - Bu Akşam
Biçim: Bass Tab, Bass Gitar Tab - FULL
Tarih: 25 Temmuz 2014 Cuma
Gönderen: csper28
Toplam Okuyan: 2.072 kişi
Bu Ay Okuyan: 58 kişi
Bu Hafta Okuyan: 4 kişi
 
Beğendiniz mi? Bu Akşam Bass Tab sayfasını Şimdi paylaşın:
DİKKAT!
Bu Akşam Bass Tab sayfasını düzgün görüntüleyemiyor olabilirsiniz.
Eğer böyle bir sıkıntınız varsa tıklayın.

Duman - Bu Akşam - Bass Tab

  (versiyon 4)
Puanlama:
 (1 kişi)

Bu Akşam şarkısının diğer versiyonlarına bakın >>

Metin boyutu: ( + Büyült ) ( - Küçült)   
G----------------------
D----------------------
A---------14/3---------
E----------------------


G-------------------------------------------------------------
D--------------------------------------------------------------
A-----10-10------7-7------10-10--------------------------------
E-7-7--------5-5-----7-7--------5-5----12-12----3-3-3---5--6-6-6


İçerim ben bu akşam 


G----------------------
D----------------------
A----------------------------------------------0----2-2---------------2-2------------------------------------0
-0-0-0-0-0-0-0
E-3-3-3---5---6-6-6---3-3-3----5--6-6-6-----3-----------3-3--0-0-0----------3-3----0-0-0--3-3-3-3-3-3-3-3-----
-----
Bu Akşam Bass Tab, AkorMerkezi.com'da yayınlanmıştır.
http://www.akormerkezi.com


İçerik Kısa Linki:


Beğendiniz mi? Bu Akşam Bass Tab sayfasını Şimdi paylaşın:


Bu Akşam şarkısı için amatör kayıtları dinleyin: (Siz de Ekleyin)

Bu Akşam Bass Tab için Komoçotoko'dan Gelenler
Duman - Bu Akşam için Kullanıcı Görüşleri

Henüz buraya yazan çizen olmamış. Yorum yapmak için buraya tıklayabilirsiniz.


Siz de Görüş Bildirin

Yorum yazma alanı Akor Merkezi üyelerine özel bir bölümdür. (Giriş Yap / Üye Ol / Şifremi Hatırlat)


Anket
Gaamzee soruyor:
soner kabadayının en güzel şarkısı aşağıdakilerden hangisidir?








Sonuçlar | Sonuçlar & Yorumlar
Yeni Anket | Anketler



AkorMerkezi.com © 2022
Gizlilik Politikası - Kullanım Koşulları - Kurallar - Son Yorumlar - Rastgele

GitarAkor.com kolonisidir. Derleme 0,05 saniye.