Akor Tab Söz Çeviri Anasayfası
Akor|Tab|Söz|Nota Arşivi
Gitar Akorları | Tab,Söz ve Nota Anasayfası | En Yeni Şarkılar | En Popüler Şarkılar | Akor Cetveli

Bilgiler
 
Seslendiren ve Şarkı: Duman - Köprü Altı
Biçim: Bass Tab, Bass Gitar Tab - HİÇBİRİ
Tarih: 26 Kasım 2008 Çarşamba
Gönderen: ohara
Toplam Okuyan: 8.084 kişi
Bu Ay Okuyan: 51 kişi
Bu Hafta Okuyan: 6 kişi
 
Beğendiniz mi? Köprü Altı Bass Tab sayfasını Şimdi paylaşın:

Duman - Köprü Altı - Bass Tab


Puanlama:
 (4 kişi)

Köprü Altı şarkısının diğer versiyonlarına bakın >>

Metin boyutu: ( + Büyült ) ( - Küçült)   
G:--------------------------------
D:--------------------------------
A:-5-5-5-5-5-5-5-5-4-4-4-4-4-4-4-4
E:--------------------------------

G:--------------------------------
D:--------------------------------
A:-----------------2-2-2-2-2-2-2-2
E:-2-2-2-2-2-2-2-2----------------

G:--------------------------------
D:--------------------------------
A:-5-5-5-5-5-5-5-5-4-4-4-4-4-4-4-4
E:--------------------------------

  F#       G#      A       B
G:--------------------------------
D:--------------------------------
A:--------------------------------
E:-2-2-2-2-4-4-4-4-5-5-5-5-7-7-7-7
4 Kes fln sora

G:--------------------------------------------------
D:--------------------------------------------------
A:-5-5-5-5-5-5-5-5-4-4-4-4-4-4-4-4-2----------------
E:---------------------------------------------12-/-
(12Den kayma 0a kadar)

Hepsi baştan sonra

G:--------------------------------
D:--------------------------------
A:-5-5-5-5-5-5-5-5-4-4-4-4-4-4-4-4
E:--------------------------------

Bas solosu
G:-------------------------------4------------4---------
D:-----------------------------4------------4-----------
A:-2---------------2--------------------------2--------2
E:---------------2-------------2------------------------


Köprü Altı Bass Tab, AkorMerkezi.com'da yayınlanmıştır.
http://www.akormerkezi.com


İçerik Kısa Linki:


Beğendiniz mi? Köprü Altı Bass Tab sayfasını Şimdi paylaşın:


Köprü Altı Bass Tab için Komoçotoko'dan Gelenler
Aramalar: köprüaltı duman bass tab, eski köprü altı bass, Duman tab, duman köprü tab, köprü altı duman şarkı dinle, duman köprü altı, duman köprü altı tab, Köprü altı duman, duman tab 4 4 4 4 5 5 5 5 2 2 2 2 bass gitar, köprüaltı duman tab
Duman - Köprü Altı için Kullanıcı Görüşleri

Henüz buraya yazan çizen olmamış. Yorum yapmak için buraya tıklayabilirsiniz.


Siz de Görüş Bildirin

Yorum yazma alanı Akor Merkezi üyelerine özel bir bölümdür. (Giriş Yap / Üye Ol / Şifremi Hatırlat)


Anket
slash (cakma) soruyor:
Hangi Gitar Daha İyi? (Bilenler Cevaplasın)








Sonuçlar | Sonuçlar & Yorumlar
Yeni Anket | Anketler



AkorMerkezi.com © 2022
Gizlilik Politikası - Kullanım Koşulları - Kurallar - Son Yorumlar - Rastgele

GitarAkor.com kolonisidir. Derleme 0,03 saniye.