Akor Tab Söz Çeviri Anasayfası
Akor|Tab|Söz|Nota Arşivi
Gitar Akorları | Tab,Söz ve Nota Anasayfası | En Yeni Şarkılar | En Popüler Şarkılar | Akor Cetveli

Bilgiler
 
Seslendiren ve Şarkı: Duman - Öyle Dertli
Biçim: TAB - SOLO
Tarih: 16 Eylül 2013 Pazartesi
Gönderen: onikiyebirvar
Toplam Okuyan: 9.411 kişi
Bu Ay Okuyan: 593 kişi
Bu Hafta Okuyan: 43 kişi
 
Beğendiniz mi? Öyle Dertli Tab sayfasını Şimdi paylaşın:

Duman - Öyle Dertli - Tab


Puanlama:
 (5 kişi)

Öyle Dertli şarkısının diğer versiyonlarına bakın >>

Metin boyutu: ( + Büyült ) ( - Küçült)   





Ara geçiş 1:16 - 1:27

e|----------------------------------------------------------------------|
B|----------------------------------------------------------------------|
G|-----3-2-----------------------------------------------------------------|
D|----------5--3--2--------------------------------------------------------|
A|--------------------5---3-3---5--1--3---------------------------------------|
E|----------------------------------------------------------------------|

e|----------------------------------------------------------------------|
B|----------------------------------------------------------------------|
G|-----3-2-----------------------------------------------------------------|
D|----------5--3--2--------------------------------------------------------|
A|--------------------5---3-3---4------------------------------------------|
E|----------------------------------------------------------------------|







Öyle Dertli Tab, AkorMerkezi.com'da yayınlanmıştır.
http://www.akormerkezi.com


İçerik Kısa Linki:


Beğendiniz mi? Öyle Dertli Tab sayfasını Şimdi paylaşın:


Öyle Dertli Tab için Komoçotoko'dan Gelenler
Aramalar: duman yle dertl solo, öyle dertli akor ve tabları, öyle detli akor, öyle dertli solo, oyle dertli solo tab, duman öyle dertli yab, dertli solo, duman oyle dertlı solo tab, chudley lowry, dertli duman
Duman - Öyle Dertli için Kullanıcı Görüşleri

Henüz buraya yazan çizen olmamış. Yorum yapmak için buraya tıklayabilirsiniz.


Siz de Görüş Bildirin

Yorum yazma alanı Akor Merkezi üyelerine özel bir bölümdür. (Giriş Yap / Üye Ol / Şifremi Hatırlat)


Anket
Uğurcank soruyor:
Elektro Akustik Gitar İçin Elektro Gitar Amfisi Kullanılır mı ?













Sonuçlar | Sonuçlar & Yorumlar
Yeni Anket | Anketler




Radyo Dinle
AkorMerkezi.com © 2020
Gizlilik Politikası - Kullanım Koşulları - Kurallar - Son Yorumlar - Rastgele

GitarAkor.com kolonisidir. Derleme 0,03 saniye.