Akor Tab Söz Çeviri Anasayfası
Akor|Tab|Söz|Nota Arşivi
Gitar Akorları | Tab,Söz ve Nota Anasayfası | En Yeni Şarkılar | En Popüler Şarkılar | Akor Cetveli

Bilgiler
 
Seslendiren ve Şarkı: Duman - Öyle Dertli
Biçim: TAB - HİÇBİRİ
Tarih: 03 Haziran 2014 Salı
Gönderen: /Karambol/
Toplam Okuyan: 2.532 kişi
Bu Ay Okuyan: 184 kişi
Bu Hafta Okuyan: 15 kişi
 
Beğendiniz mi? Öyle Dertli Tab sayfasını Şimdi paylaşın:

Duman - Öyle Dertli - Tab

  (versiyon 3)
Puanlama:
 (41 kişi)

Öyle Dertli şarkısının diğer versiyonlarına bakın >>

Metin boyutu: ( + Büyült ) ( - Küçült)   
Giriş:                                                                                      /Karambol/

E:--------------------------|------------------------|--------------------------|------------------------|
B:--------------------------|------------------------|--------------------------|------------------------|
G:--7--7--7-----------------|--3--3--3--5------------|--7--7--7-----------------|--3--3--3--5------------|
D:--7--7--7------5----5-----|--3--3--3--5--3----2----|--7--7--7------5----5-----|--3--3--3--5--3----2----|
A:--5--5--5------5----5-----|--1--1--1--3--3----2----|--5--5--5------5----5-----|--1--1--1--3--3----2----|
E:------------0--3----3--5--|------------------------|------------0--3----3--5--|------------------------|

E:--------------------------|------------------------|--------------------------|------------------------|
B:--------------------------|------------------------|--------------------------|------------------------|
G:--7--7--7-----------------|--3--3--3--5------------|--7--7--7-----------------|--3--3--3--5------------|
D:--7--7--7------5----5-----|--3--3--3--5--3----2----|--7--7--7------5----5-----|--3--3--3--5--3----2----|
A:--5--5--5------5----5-----|--1--1--1--3--3----2----|--5--5--5------5----5-----|--1--1--1--3--3----2----|
E:------------0--3----3--5--|------------------------|------------0--3----3--5--|------------------------|


  Kanar gibi                  yaramı dağlarım            Yanar İçim                 yine de Saklarım
E:--------------------------|--------------------------|--------------------------|--------------------------|
B:--------------------------|--------------------------|--------------------------|--------------------------|
G:--------------------------|--------------------------|--------------------------|--------------------------|
D:--------------------------|--------------------------|--------------------------|--------------------------|
A:--5--5--5--0--3--3--3--0--|--6--6--6--8--8--8--6--5--|--5--5--5--0--3--3--3--0--|-----------0--1--1--3--5--|
E:--------------------------|--------------------------|--------------------------|--3--3--3-----------------|

  Geçmez sözün                Bi bana geçmez            Gücün yetmez
E:--------------------------|--------------------------|--------------------------|--------------------------|
B:--------------------------|--------------------------|--------------------------|--------------------------|
G:--------------------------|--------------------------|--------------------------|--------------------------|
D:--------------------------|--------------------------|--------------------------|--------------------------|
A:--5--5--5--0--3--3--3--0--|--6--6--6--8--8--8--6--5--|--5--5--5--0--3--3--3--0--|-----------0--1--1--3--5--|
E:--------------------------|--------------------------|--------------------------|--3--3--3-----------------|



Tekrar başa;

E:--------------------------|------------------------|--------------------------|------------------------|
B:--------------------------|------------------------|--------------------------|------------------------|
G:--7--7--7-----------------|--3--3--3--5------------|--7--7--7-----------------|--3--3--3--5------------|
D:--7--7--7------5----5-----|--3--3--3--5--3----2----|--7--7--7------5----5-----|--3--3--3--5--3----2----|
A:--5--5--5------5----5-----|--1--1--1--3--3----2----|--5--5--5------5----5-----|--1--1--1--3--3----2----|
E:------------0--3----3--5--|------------------------|------------0--3----3--5--|------------------------|

E:--------------------------|------------------------|--------------------------|------------------------|
B:--------------------------|------------------------|--------------------------|------------------------|
G:--7--7--7-----------------|--3--3--3--5------------|--7--7--7-----------------|--3--3--3--5------------|
D:--7--7--7------5----5-----|--3--3--3--5--3----2----|--7--7--7------5----5-----|--3--3--3--5--3----2----|
A:--5--5--5------5----5-----|--1--1--1--3--3----2----|--5--5--5------5----5-----|--1--1--1--3--3----2----|
E:------------0--3----3--5--|------------------------|------------0--3----3--5--|------------------------|
Öyle Dertli Tab, AkorMerkezi.com'da yayınlanmıştır.
http://www.akormerkezi.com


İçerik Kısa Linki:


Beğendiniz mi? Öyle Dertli Tab sayfasını Şimdi paylaşın:


Öyle Dertli Tab için Komoçotoko'dan Gelenler
Aramalar: öyle dertli duman, Öyle dertli tab, duman öyle dertli tab, duman öyle dertli tab ver, öyle dertli dertli, duman öyle dertli, Öyle dertli, öyle dertli gitar tab
Duman - Öyle Dertli için Kullanıcı Görüşleri

Henüz buraya yazan çizen olmamış. Yorum yapmak için buraya tıklayabilirsiniz.


Siz de Görüş Bildirin

Yorum yazma alanı Akor Merkezi üyelerine özel bir bölümdür. (Giriş Yap / Üye Ol / Şifremi Hatırlat)


Anket
yusufyuso soruyor:
Ibanez-Tcy10edx-Mb Elektro Akustik Nasıl Sizce?









Sonuçlar | Sonuçlar & Yorumlar
Yeni Anket | Anketler




Radyo Dinle
AkorMerkezi.com © 2020
Gizlilik Politikası - Kullanım Koşulları - Kurallar - Son Yorumlar - Rastgele

GitarAkor.com kolonisidir. Derleme 0,03 saniye.