Akor Tab Söz Çeviri Anasayfası
Akor|Tab|Söz|Nota Arşivi
Gitar Akorları | Tab,Söz ve Nota Anasayfası | En Yeni Şarkılar | En Popüler Şarkılar | Akor Cetveli

Bilgiler
 
Seslendiren ve Şarkı: Gökhan Özen - Duman Gözlüm
Biçim: TAB - HİÇBİRİ
Tarih: 20 Kasım 2018 Salı
Gönderen: El_Gitaroo
Toplam Okuyan: 0 kişi
Bu Ay Okuyan: 0 kişi
Bu Hafta Okuyan: 0 kişi
 
Beğendiniz mi? Duman Gözlüm Tab sayfasını Şimdi paylaşın:

Gökhan Özen - Duman Gözlüm - Tab


Puanlama:
 (0 kişi)

Duman Gözlüm şarkısının diğer versiyonlarına bakın >>

Metin boyutu: ( + Büyült ) ( - Küçült)   
Giriş

E------0------0-----1--1-0--------------0------0-----1--1-0-----------------------I
B---0-1----0-1---0-1------3-1-0------0-1----0-1---0-1------3-1-0------------------I
G--2------2-----2-------------------2------2-----2--------------------------------I
D---------------------------------------------------------------------------------I
A---------------------------------------------------------------------------------I
E---------------------------------------------------------------------------------I


   Am
E-----1-0---1-0-------------------------------------------------------------------I
B---------3----3--1-0-1-3-3/5--1-0-1-3-3/5-3-1-0-----1-0-1-3-1-3-3/5--------------I
G-----------------------------------------------2-0-2-----------------------------I
D---------------------------------------------------------------------------------I
A---------------------------------------------------------------------------------I
E---------------------------------------------------------------------------------I

                                            Am
E-----1-0---1-0--5-4-7-0----------------------------------------------------------I
B---------3----3-----------1-0-1-3-3/5-3-1-0--------------------------------------I
G---------------------------------------------------------------------------------I
D---------------------------------------------------------------------------------I
A---------------------------------------------------------------------------------I
E---------------------------------------------------------------------------------I



Duman Gözlüm Tab, AkorMerkezi.com'da yayınlanmıştır.
http://www.akormerkezi.com


İçerik Kısa Linki:


Beğendiniz mi? Duman Gözlüm Tab sayfasını Şimdi paylaşın:


Duman Gözlüm Tab için Komoçotoko'dan Gelenler
Gökhan Özen - Duman Gözlüm için Kullanıcı Görüşleri

Henüz buraya yazan çizen olmamış. Yorum yapmak için buraya tıklayabilirsiniz.


Siz de Görüş Bildirin

Yorum yazma alanı Akor Merkezi üyelerine özel bir bölümdür. (Giriş Yap / Üye Ol / Şifremi Hatırlat)


Anket
yenalthis soruyor:
Klasik Gitara Başladım, Hangisi Önerirsiniz?












Sonuçlar | Sonuçlar & Yorumlar
Yeni Anket | Anketler



AkorMerkezi.com © 2022
Gizlilik Politikası - Kullanım Koşulları - Kurallar - Son Yorumlar - Rastgele

GitarAkor.com kolonisidir. Derleme 0,03 saniye.