Akor Tab Söz Çeviri Anasayfası
Akor|Tab|Söz|Nota Arşivi
Gitar Akorları | Tab,Söz ve Nota Anasayfası | En Yeni Şarkılar | En Popüler Şarkılar | Akor Cetveli

Bilgiler
 
Seslendiren ve Şarkı: Grup Koridor - Senin O Gözlerin Varya
Biçim: TAB - SOLO
Tarih: 21 Aralık 2008 Pazar
Gönderen: BlindImam
Toplam Okuyan: 29.121 kişi
Bu Ay Okuyan: 311 kişi
Bu Hafta Okuyan: 26 kişi
 
Beğendiniz mi? Senin O Gözlerin Varya Tab sayfasını Şimdi paylaşın:

Grup Koridor - Senin O Gözlerin Varya - Tab


Puanlama:
 (28 kişi)

Senin O Gözlerin Varya şarkısının diğer versiyonlarına bakın >>

Metin boyutu: ( + Büyült ) ( - Küçült)   
E||-----------------------|-------------------------|
B||-4-5-5-4--2-2--2-4--5--|-4--2-4-4-2--1-1--1-2--4-|
G||-----------------------|-------------------------|
D||-----------------------|-------------------------|
A||-----------------------|-------------------------|
E||-----------------------|-------------------------|

----------------------------------|-------|
--2--1--2--2--1---------1---------|-------|
-----------------2--2-------2---1-|--2----|
----------------------------------|-------|
----------------------------------|-------|
----------------------------------|------

------------------------|---------------------------|
-2-4-4-2--1--1--1--2--4-|-2--1--2--2--1---------1--2|
------------------------|---------------2--2--2-----|
------------------------|---------------------------|
------------------------|---------------------------|
------------------------|---------------------------|

--------------------------------|----------||
--1--1------------1--2----1-----|----------||
--------2--1--2---------------2-|--1-------||
--------------------------------|----------||
--------------------------------|----------||
--------------------------------|----------||

>İnşallah Beğenirsiniz<

Senin O Gözlerin Varya Tab, AkorMerkezi.com'da yayınlanmıştır.
http://www.akormerkezi.com


İçerik Kısa Linki:


Beğendiniz mi? Senin O Gözlerin Varya Tab sayfasını Şimdi paylaşın:


Senin O Gözlerin Varya şarkısı için amatör kayıtları dinleyin: (Siz de Ekleyin)

Senin O Gözlerin Varya Tab için Komoçotoko'dan Gelenler
Aramalar: senin o gözlerin varya akor merkezi tab, senin o gözlerin varya arpeji, koridor senin o gözlerin var ya akor, senin gözlerin, senin o gozlerin varya arpeji ne, grup koridor tab, seni o gözlerin varya tab, aaah katibi varya, senin o gözlerin varya notalar, koridor akor tab merkezi senin o gizlerin varya
Grup Koridor - Senin O Gözlerin Varya için Kullanıcı Görüşleri

ellerinize sağlık müthiş olmuş..


Bu Yoruma Cevap Ver
sedatgulmen | 30 Ocak 2013 Çarşamba 18:22
teşekkürler .)


Bu Yoruma Cevap Ver
sessizsakin | 13 Ekim 2012 Cumartesi 15:47
hic alakasii yokk sanki..


Bu Yoruma Cevap Ver
birtanesi__ | 3 Aralık 2011 Cumartesi 20:08
4/4 rock ritmi süper gidiyo


Bu Yoruma Cevap Ver
elktroforever | 26 Ağustos 2011 Cuma 19:36
iyi olmuş eksikler var birde orjinali bu değil. emeğe saygı :)


Bu Yoruma Cevap Ver
kaancmylmz | 26 Haziran 2011 Pazar 21:42
gzL olmus emege saygı !!


Bu Yoruma Cevap Ver
BurhanYunus28 | 31 Temmuz 2010 Cumartesi 17:21
MüTiŞ...


Bu Yoruma Cevap Ver
utkuamn | 29 Temmuz 2010 Perşembe 15:16
pek uyumlu deil ama eline saglık ugrasmıssın (emege saygı :D)


Bu Yoruma Cevap Ver
qenc quiTaRiST | 23 Mayıs 2010 Pazar 10:45
arkadaşlar öyle değil gitar hocama sordum bi ara yazarım


Bu Yoruma Cevap Ver
hidigo55 | 2 Şubat 2010 Salı 08:32
7-8-8-7-5-5-7-8-7----------5-7-7-5-4-4-5-7-5
Senin o gözlerin var ya---------her şeyi bitirdi
e---4-5-5-5-5-4-5-5-4-1-------8-7-8-8-7-5-4
Yazık ettin geçen günleri-------günleriii
e---5-7-7-5-4-4-5-7-5----4-5-5-4-1-1-4-5
Hani o verdiğin sözler----Yalanmıydı birer birer
e---1-1-4-5-5-4-1-4-0
Artık seni sevememki...

emeğe saygı ama sanki böle daha iyi :)



Bu Yoruma Cevap Ver
rock_angel* | 3 Ekim 2009 Cumartesi 16:38
güzel ama çok kolay


Bu Yoruma Cevap Ver
rock_angel* | 3 Ekim 2009 Cumartesi 16:33
11 Ocak 2009 Pazar tarihinde game over yazmıştı:
buna uygun ritim zor bnce beyler daha ince bi solo ayarlamak lazım bnce
katılıyorum...


Bu Yoruma Cevap Ver
dark_133 | 5 Nisan 2009 Pazar 19:23
<p>g&uuml;zel olmuuş"/fck/editor/images/smiley/msn/regular_smile.gif" alt=""/></p>


Bu Yoruma Cevap Ver
gitarcıkiz | 3 Şubat 2009 Salı 18:34
buna uygun ritim zor bnce beyler daha ince bi solo ayarlamak lazım bnce


Bu Yoruma Cevap Ver
game over | 11 Ocak 2009 Pazar 01:36
ellerinize sağlık bence gayette güzel olmus


Bu Yoruma Cevap Ver
kara bojuk | 5 Ocak 2009 Pazartesi 20:36
pek güzel oldugunu söyleyemem eksiklikler var


Bu Yoruma Cevap Ver
ESAS_MECAZ | 5 Ocak 2009 Pazartesi 18:45
fena deil... :)


Bu Yoruma Cevap Ver
-gtrist- | 31 Aralık 2008 Çarşamba 23:21
tebrikkk edrmm.


Bu Yoruma Cevap Ver
guitaronfire | 28 Aralık 2008 Pazar 13:24
ii olmus kulagina saglik


Bu Yoruma Cevap Ver
blackkkkk | 27 Aralık 2008 Cumartesi 16:25
ii olmuş


Bu Yoruma Cevap Ver
oguz92 | 25 Aralık 2008 Perşembe 17:27
güzel ...


Bu Yoruma Cevap Ver
-gtrist- | 24 Aralık 2008 Çarşamba 21:36


Siz de Görüş Bildirin

Yorum yazma alanı Akor Merkezi üyelerine özel bir bölümdür. (Giriş Yap / Üye Ol / Şifremi Hatırlat)


Anket
hckrr soruyor:
Gitarda Hangisi Daha Hoşunuza Gider








Sonuçlar | Sonuçlar & Yorumlar
Yeni Anket | Anketler



AkorMerkezi.com © 2021
Gizlilik Politikası - Kullanım Koşulları - Kurallar - Son Yorumlar - Rastgele

GitarAkor.com kolonisidir. Derleme 0,05 saniye.