Akor Tab Söz Çeviri Anasayfası
Akor|Tab|Söz|Nota Arşivi
Gitar Akorları | Tab,Söz ve Nota Anasayfası | En Yeni Şarkılar | En Popüler Şarkılar | Akor Cetveli

Bilgiler
 
Seslendiren ve Şarkı: Grup Koridor - Senin O Gözlerin Varya
Biçim: TAB - SOLO
Tarih: 17 Kasım 2014 Pazartesi
Gönderen: amitiel
Toplam Okuyan: 2.071 kişi
Bu Ay Okuyan: 186 kişi
Bu Hafta Okuyan: 10 kişi
 
Beğendiniz mi? Senin O Gözlerin Varya Tab sayfasını Şimdi paylaşın:

Grup Koridor - Senin O Gözlerin Varya - Tab

  (versiyon 2)
Puanlama:
 (1 kişi)

Senin O Gözlerin Varya şarkısının diğer versiyonlarına bakın >>

Metin boyutu: ( + Büyült ) ( - Küçült)   
E|------------------------------|
B|------------------------------|
G|------------------------------|
D|------------------------------|
A|------------------------------|
E|--9-10-10-9-----7-7----9-10-9-|

E|------------------------------|
B|------------------------------|
G|------------------------------|
D|------------------------------|
A|------------------------------|
E|--7-9-9-7----6-6----7-9-7-----|

E|------------------------------|
B|------------------------------|
G|------------------------------|
D|------------------------------|
A|------------------------------|
E|--6-7-7-6----3-3----6---3-2-3-|

Biraz Bekleyin..

E|------------------------------|
B|------------------------------|
G|------------------------------|
D|------------------------------|
A|------------------------------|
E|--7-9-9-7---6-6-----7-9-7-----|

E|------------------------------|
B|------------------------------|
G|------------------------------|
D|------------------------------|
A|------------------------------|
E|--6-7-7-6----3-3-----6-7------|

E|------------------------------|
B|------------------------------|
G|------------------------------|
D|------------------------------|
A|------------------------------|
E|--7-7-6---3-2-3-6-7--6-7-3-2--|


Orjinal Şarkının Ritmiyle Hemen Hemen Aynıdır !!

Senin O Gözlerin Varya Tab, AkorMerkezi.com'da yayınlanmıştır.
http://www.akormerkezi.com


İçerik Kısa Linki:


Beğendiniz mi? Senin O Gözlerin Varya Tab sayfasını Şimdi paylaşın:


Senin O Gözlerin Varya şarkısı için amatör kayıtları dinleyin: (Siz de Ekleyin)

Senin O Gözlerin Varya Tab için Komoçotoko'dan Gelenler
Aramalar: senin o gözlerin varya akor, senin o gözlerin varya akor 2, grup koridor senin o gozlerin varya tab
Grup Koridor - Senin O Gözlerin Varya için Kullanıcı Görüşleri

Henüz buraya yazan çizen olmamış. Yorum yapmak için buraya tıklayabilirsiniz.


Siz de Görüş Bildirin

Yorum yazma alanı Akor Merkezi üyelerine özel bir bölümdür. (Giriş Yap / Üye Ol / Şifremi Hatırlat)


Anket
klapcu12 soruyor:
Eskiden Ayna Grubunda Gitaristlik Yapan Mehmet Çoban'ı Severmiydiniz?








Sonuçlar | Sonuçlar & Yorumlar
Yeni Anket | Anketler




Radyo Dinle
AkorMerkezi.com © 2020
Gizlilik Politikası - Kullanım Koşulları - Kurallar - Son Yorumlar - Rastgele

GitarAkor.com kolonisidir. Derleme 0,03 saniye.