Akor Tab Söz Çeviri Anasayfası
Akor|Tab|Söz|Nota Arşivi
Gitar Akorları | Tab,Söz ve Nota Anasayfası | En Yeni Şarkılar | En Popüler Şarkılar | Akor Cetveli

Bilgiler
 
Seslendiren ve Şarkı: Kargo - Yıldızların Altında
Biçim: Bass Tab, Bass Gitar Tab - HİÇBİRİ
Tarih: 25 Nisan 2009 Cumartesi
Gönderen: _bascı_
Toplam Okuyan: 15.761 kişi
Bu Ay Okuyan: 86 kişi
Bu Hafta Okuyan: 11 kişi
 
Beğendiniz mi? Yıldızların Altında Bass Tab sayfasını Şimdi paylaşın:

Kargo - Yıldızların Altında - Bass Tab


Puanlama:
 (6 kişi)

Yıldızların Altında şarkısının diğer versiyonlarına bakın >>

Metin boyutu: ( + Büyült ) ( - Küçült)   
G----------------------/--------------/------------/----------------/
D---------------------/--------------/------------/----------------/
A---------------6--5-/--------6-5---/-------6-5--/--------666-5---/
E------3—3----------/-3-33---------/-3-33-------/-3-33-----------/

                   İNTRO

G---------------------------------------------------------------------
D---------------------------------------------------------------------
A-----------------6-6-6-6-5-5-5-5-3h5-5-5-5-5-5-5-5-5-----------------
E—3-3-3-3-3-3-3-3-------------------------------------3-3-3-3-1-1-1-1-
   benim gölüm    sarhoştur yıldızların       altında 


G---------------------------------------
D---------------------------------------
A-6-6-6-6-3-3-3-3-5-5-5-5---------------
E------------------------3-3-3-31-3-1-3-

sevişmek ah ne hoştur yıld.alt.

G---------------------------------------------------------------------
D---------------------------------------------------------------------
A-----------------6-6-6-6-5-5-5-5-3h5-5-5-5-5-5-5-5-5-----------------
E—3-3-3-3-3-3-3-3-------------------------------------3-3-3-3-1-1-1-1-
      mavi nurdan bir ırmak       gölge de salıncak


G---------------------------------------
D---------------------------------------
A-6-6-6-6-3-3-3-3-5-5-5-5---------------
E------------------------3-3-3-31-3-1-3-

birde ikimiz kalsak yıl. alt.

   


G--------------------------------------------------------------------------------
D-------------------------------------------------------------------------------- X 2
A---------66-----6-6-6-6-6-6-6-6-----------------5-5-5-5-5-5-5-5-----------------
E—33--11-----66------------------6-6-6-6-6-6-6-6-----------------3-3-3-31-3-1-3--
    Nakarat

G--------------------------------------------------------------------------
D--------------------------------------------------------------------------
A---6-6-6-6-6-6-6-6---------------------5-5-5-5-5-5-5-5--------------------
E—---------------------6-6-6-6-6-6-6-6--------------------3-3-3-3-1-3-1-3--
      Gözlerim                  kapansada  yıldızların          altında

G----------------------/--------------/------------/----------------/
D---------------------/--------------/------------/----------------/  
A---------------6--5-/--------6-5---/-------6-5--/--------666-5---/   
E------3—3----------/-3-33---------/-3-33-------/-3-33-----------/
                   ARA SOLO

G---------------------------------------------------------------------
D---------------------------------------------------------------------
A-----------------6-6-6-6-5-5-5-5-3h5-5-5-5-5-5-5-5-5-----------------
E—3-3-3-3-3-3-3-3-------------------------------------3-3-3-3-1-1-1-1-
   benim gölüm    sarhoştur yıldızların       altında 


G---------------------------------------
D---------------------------------------
A-6-6-6-6-3-3-3-3-5-5-5-5---------------
E------------------------3-3-3-31-3-1-3-

sevişmek ah ne hoştur yıld.alt.

G--------------------------------------------------------------------------------
D-------------------------------------------------------------------------------- X 2
A---------66-----6-6-6-6-6-6-6-6-----------------5-5-5-5-5-5-5-5-----------------
E—33--11-----66------------------6-6-6-6-6-6-6-6-----------------3-3-3-31-3-1-3--
    Nakarat

G--------------------------------------------------------------------------
D-------------------------------------------------------------------------- X 2
A---6-6-6-6-6-6-6-6---------------------5-5-5-5-5-5-5-5--------------------
E—---------------------6-6-6-6-6-6-6-6--------------------3-3-3-3-1-3-1-3--
      Gözlerim                  kapansada  yıldızların          altında

G----------------------/--------------/------------/-----------------/
D---------------------/--------------/------------/-----------------/  
A---------------6--5-/--------6-5---/-------6-5--/--------666-5----/   
E------3—3----------/-3-33---------/-3-33-------/-3-33----------3-/
                   FİNAL SOLO


Yıldızların Altında Bass Tab, AkorMerkezi.com'da yayınlanmıştır.
http://www.akormerkezi.com


İçerik Kısa Linki:


Beğendiniz mi? Yıldızların Altında Bass Tab sayfasını Şimdi paylaşın:


Yıldızların Altında şarkısı için amatör kayıtları dinleyin: (Siz de Ekleyin)

Yıldızların Altında Bass Tab için Komoçotoko'dan Gelenler
Aramalar: Kargo - Yıldızların Altında, kargo yıldızların altında intro, kargo yildizlarin altinda bass, kargo yıldızların altında tab gitar, yıldızların altında kargo gitar notaları, tek telli bass tab, yıldızların altında gitar notaları tab, yıldızların altında elektro gitar tabları, sigaramın dumanına sarsam akor, yıldızların altonda bass
Kargo - Yıldızların Altında için Kullanıcı Görüşleri

kardes ellerine sağlık benim still. r# lere vurgu yapmışssın :) ben slapla çalıyorum daha güzel oluyor bence .. gerçekten eline sağlık fakat burada tartım kaçmış. ama zaten bassçı olan kendine göre yorumlar


Bu Yoruma Cevap Ver
Git@rissT | 19 Mart 2012 Pazartesi 18:08
olm adam akıllı yorum yaz olmakla olmamak arasında daglar kadar fark var :S ya olmuştur ya olmamıştır düzgün yorumlar yap bence olmuş on numarada olmuş kardeş eline saglık :S


Bu Yoruma Cevap Ver
basscolic | 18 Haziran 2009 Perşembe 01:55
olmakla olmamak arasi bazi hatalar var ama emege saygi.


Bu Yoruma Cevap Ver
RodieRondel | 24 Mayıs 2009 Pazar 14:25


Siz de Görüş Bildirin

Yorum yazma alanı Akor Merkezi üyelerine özel bir bölümdür. (Giriş Yap / Üye Ol / Şifremi Hatırlat)


Anket
AVRİLcı soruyor:
Hangi Metallica şarkısını daha çok seviyorsunuz?













Sonuçlar | Sonuçlar & Yorumlar
Yeni Anket | Anketler



AkorMerkezi.com © 2022
Gizlilik Politikası - Kullanım Koşulları - Kurallar - Son Yorumlar - Rastgele

GitarAkor.com kolonisidir. Derleme 0,05 saniye.