Akor Tab Söz Çeviri Anasayfası
Akor|Tab|Söz|Nota Arşivi
Gitar Akorları | Tab,Söz ve Nota Anasayfası | En Yeni Şarkılar | En Popüler Şarkılar | Akor Cetveli

Bilgiler
 
Seslendiren ve Şarkı: Kargo - Yıldızların Altında
Biçim: TAB - FULL
Tarih: 20 Kasım 2018 Salı
Gönderen: meltarr95
Toplam Okuyan: 0 kişi
Bu Ay Okuyan: 0 kişi
Bu Hafta Okuyan: 0 kişi
 
Beğendiniz mi? Yıldızların Altında Tab sayfasını Şimdi paylaşın:

Kargo - Yıldızların Altında - Tab

  (versiyon 6)
Puanlama:
 (3 kişi)

Yıldızların Altında şarkısının diğer versiyonlarına bakın >>

Metin boyutu: ( + Büyült ) ( - Küçült)   
Umarım beğenirsiniz yorumlarınızı eksik etmeyin

Benim gönlüm serhoştur Yıldızların altında 
E-----------1-0--0-1-1-0-----0--------------
B---0-1-3-1--------------3-1---------------
G-2------------------------------------------
D-------------------------------------------
A--------------------------------------------
E--------------------------------------------

Sevişmek ah ne hoştur Yıldızların altında 
E-----------0------------0--------------------
B-3-1-0-1-3---1--0-1-3-1---1------------------
G----------------------------2---------------
D-------------------------------------------
A--------------------------------------------
E--------------------------------------------


Yanmam gönül yansa da Ecel beni alsa da 
E-5-3-1-0--3-1-0--0-1-0-------0------------------
B---------------------------3---3-1-------------
G--------------------------------------------
D-------------------------------------------
A--------------------------------------------
E--------------------------------------------




Gözlerim kapansa da Yıldızların altında 
E-----------0------------0--------------------
B-3-1-0-1-3---1--0-1-3-1---1------------------
G----------------------------2---------------
D-------------------------------------------
A--------------------------------------------
E--------------------------------------------


Mavi nurdan bir ırmak Gölgede bir salıncak 
E-----------1-0--0-1-1-0-----0--------------
B---0-1-3-1--------------3-1---------------
G-2------------------------------------------
D-------------------------------------------
A--------------------------------------------
E--------------------------------------------





Bir de ikimiz kalsak Yıldızların altında 
E-----------0------------0--------------------
B-3-1-0-1-3---1--0-1-3-1---1------------------
G----------------------------2---------------
D-------------------------------------------
A--------------------------------------------
E--------------------------------------------



Yanmam gönül yansada Ecel beni alsada 
E-5-3-1-0--3-1-0--0-1-0-------0------------------
B---------------------------3---3-1-------------
G--------------------------------------------
D-------------------------------------------
A--------------------------------------------
E--------------------------------------------



Gözlerim kapansada Yıldızların altında 
E-----------0------------0--------------------
B-3-1-0-1-3---1--0-1-3-1---1------------------
G----------------------------2---------------
D-------------------------------------------
A--------------------------------------------
E--------------------------------------------



Ne keder ne yas olur Yıldızların altında 
E-----------1-0--0-1-1-0-----0--------------
B---0-1-3-1--------------3-1---------------
G-2------------------------------------------
D-------------------------------------------
A--------------------------------------------
E--------------------------------------------


Çakıllar elmas olur Yıldızların altında 
E-----------0------------0--------------------
B-3-1-0-1-3---1--0-1-3-1---1------------------
G----------------------------2---------------
D-------------------------------------------
A--------------------------------------------
E--------------------------------------------




Yanmam gönül yansa da Ecel beni alsa da 
E-5-3-1-0--3-1-0--0-1-0-------0------------------
B---------------------------3---3-1-------------
G--------------------------------------------
D-------------------------------------------
A--------------------------------------------
E--------------------------------------------



Gözlerim kapansa da Yıldızların altında
E-----------0------------0--------------------
B-3-1-0-1-3---1--0-1-3-1---1------------------
G----------------------------2---------------
D-------------------------------------------
A--------------------------------------------
E--------------------------------------------

Yıldızların Altında Tab, AkorMerkezi.com'da yayınlanmıştır.
http://www.akormerkezi.com


İçerik Kısa Linki:


Beğendiniz mi? Yıldızların Altında Tab sayfasını Şimdi paylaşın:


Yıldızların Altında şarkısı için amatör kayıtları dinleyin: (Siz de Ekleyin)

Yıldızların Altında Tab için Komoçotoko'dan Gelenler
Aramalar: yıldızlarınaltında gitar solo, Yıldırların altında kolay gitar tab, yildizlarin altinda akor ve sarki sozu, yıldızların altında solo tab, yildizlarin altinda tab, YILDIZARIN altında tap gitar, Yildizlarin altinda gitar tab
Kargo - Yıldızların Altında için Kullanıcı Görüşleri

Henüz buraya yazan çizen olmamış. Yorum yapmak için buraya tıklayabilirsiniz.


Siz de Görüş Bildirin

Yorum yazma alanı Akor Merkezi üyelerine özel bir bölümdür. (Giriş Yap / Üye Ol / Şifremi Hatırlat)


Anket
Mrs.Honey soruyor:
Owl City'i ne kadar tanıyoruz?








Sonuçlar | Sonuçlar & Yorumlar
Yeni Anket | Anketler



AkorMerkezi.com © 2022
Gizlilik Politikası - Kullanım Koşulları - Kurallar - Son Yorumlar - Rastgele

GitarAkor.com kolonisidir. Derleme 0,05 saniye.