Akor Tab Söz Çeviri Anasayfası
Akor|Tab|Söz|Nota Arşivi
Gitar Akorları | Tab,Söz ve Nota Anasayfası | En Yeni Şarkılar | En Popüler Şarkılar | Akor Cetveli

Bilgiler
 
Seslendiren ve Şarkı: Karmate - Nayino
Biçim: TAB - FULL
Tarih: 29 Eylül 2012 Cumartesi
Gönderen: by_tursu
Toplam Okuyan: 19.582 kişi
Bu Ay Okuyan: 1.038 kişi
Bu Hafta Okuyan: 105 kişi
 
Beğendiniz mi? Nayino Tab sayfasını Şimdi paylaşın:

Karmate - Nayino - Tab

  (versiyon 2)
Puanlama:
 (19 kişi)

Nayino şarkısının diğer versiyonlarına bakın >>

Metin boyutu: ( + Büyült ) ( - Küçült)   
E:-------------------------------5-7-7-7--7-8-10-8--8-7-5-----|
B:---5-5-7-8-7-5-7---5-5-7-8-7-5------------------------------|
G:-7---------------7------------------------------------------|\
D:------------------------------------------------------------| \
A:------------------------------------------------------------|  \
E:------------------------------------------------------------|   \
                                                                   \  Giriş
E:-7-7-7--7-5-----5-5-5--5------------------------------------|    /    x1
B:------------8-7----------8-7-5--5-7-8-7-5-8-7-5-------------|   /
G:------------------------------------------------------------|  /
D:------------------------------------------------------------| /
A:------------------------------------------------------------|/
E:------------------------------------------------------------|

E:7-5-----5-7-5--5---------5----------------------------------|\
B:----8-8----------8-7-7-8---8--8-7-5-5---8-7--8-7-5-8-7-5-5--| \
G:--------------------------------------7---------------------|  \  Nakarat
D:------------------------------------------------------------|  /    x2
A:------------------------------------------------------------| /
E:------------------------------------------------------------|/
Nayino Tab, AkorMerkezi.com'da yayınlanmıştır.
http://www.akormerkezi.com


İçerik Kısa Linki:


Beğendiniz mi? Nayino Tab sayfasını Şimdi paylaşın:



Nayino Tab için Komoçotoko'dan Gelenler
Aramalar: nayino tab 2, nayinov akustik, nayi̇no tabb, nqyino tqb, karmete nayino akor, nayinı tab, naynino tab, nayıno akor akor, nayino natasi, Karmate - Nayino
Karmate - Nayino için Kullanıcı Görüşleri

çok güzel olmuş kulağına sağlık :)


Bu Yoruma Cevap Ver
Comed_y | 24 Nisan 2015 Cuma 21:46
10 numara 5 yıldız harfi harfine uyuyor


Bu Yoruma Cevap Ver
srtsalcn | 29 Aralık 2014 Pazartesi 20:31
eline sağlık :)


Bu Yoruma Cevap Ver
fenr | 23 Kasım 2013 Cumartesi 19:20
29 Ağustos 2013 Perşembe tarihinde heruraha yazmıştı:
gerçkten süper olmuş tebrik ederim
teşekkürler


Bu Yoruma Cevap Ver
by_tursu | 29 Ağustos 2013 Perşembe 23:48
gerçkten süper olmuş tebrik ederim


Bu Yoruma Cevap Ver
heruraha | 29 Ağustos 2013 Perşembe 16:59
teşekkür ederim kardeşim..


Bu Yoruma Cevap Ver
by_tursu | 2 Kasım 2012 Cuma 21:44
tebrik ederim kardeş cok iyi olmus bende cıkardım ama bu kadar güzel değildi gercekten eline,kulagına sağlık


Bu Yoruma Cevap Ver
sortola08 | 15 Ekim 2012 Pazartesi 23:12


Siz de Görüş Bildirin

Yorum yazma alanı Akor Merkezi üyelerine özel bir bölümdür. (Giriş Yap / Üye Ol / Şifremi Hatırlat)


Anket
A3rman soruyor:
Bir Gibson Les Paulunuz Var Mı ?







Sonuçlar | Sonuçlar & Yorumlar
Yeni Anket | Anketler



AkorMerkezi.com © 2021
Gizlilik Politikası - Kullanım Koşulları - Kurallar - Son Yorumlar - Rastgele

GitarAkor.com kolonisidir. Derleme 0,04 saniye.