Akor Tab Söz Çeviri Anasayfası
Akor|Tab|Söz|Nota Arşivi
Gitar Akorları | Tab,Söz ve Nota Anasayfası | En Yeni Şarkılar | En Popüler Şarkılar | Akor Cetveli

Bilgiler
 
Seslendiren ve Şarkı: Karmate - Nayino
Biçim: TAB - HİÇBİRİ
Tarih: 22 Kasım 2012 Perşembe
Gönderen: Fenerli Uşak
Toplam Okuyan: 7.483 kişi
Bu Ay Okuyan: 412 kişi
Bu Hafta Okuyan: 36 kişi
 
Beğendiniz mi? Nayino Tab sayfasını Şimdi paylaşın:

Karmate - Nayino - Tab

  (versiyon 3)
Puanlama:
 (6 kişi)

Nayino şarkısının diğer versiyonlarına bakın >>

Metin boyutu: ( + Büyült ) ( - Küçült)   
E:1-3-3-5-6-5-3-5-1-3-3-5-6-5-3-5-7-7-7-7-8-10-8-8-7-5--------|
B:------------------------------------------------------------|
G:------------------------------------------------------------|
D:------------------------------------------------------------|
A:------------------------------------------------------------|
E:------------------------------------------------------------|

E:7-7-7--7-5-----5-5-5--5-------------------------------------|
B:------------8-7----------8-7-5--5-7-8-7-5-8-7-5-------------|
G:------------------------------------------------------------|
D:------------------------------------------------------------|
A:------------------------------------------------------------|
E:------------------------------------------------------------|

Nakarat

E:7-5-3-3-5-7-5-5-3-1-1-3-5-3-3-3-2-----------------------------
B:--------------------------------------------------------------
G:--------------------------------------------------------------
D:--------------------------------------------------------------
A:--------------------------------------------------------------
E:--------------------------------------------------------------
Nayino Tab, AkorMerkezi.com'da yayınlanmıştır.
http://www.akormerkezi.com


İçerik Kısa Linki:


Beğendiniz mi? Nayino Tab sayfasını Şimdi paylaşın:



Nayino Tab için Komoçotoko'dan Gelenler
Aramalar: nayino gitar solo, karmate nayino akor, naino solo, karmate nayino akor orjinal, karmate nayino gitar arpej, gp3 nayino indir, Karmate - Nayino, nayino solo tab, nayino, nayino karmateakor
Karmate - Nayino için Kullanıcı Görüşleri

Henüz buraya yazan çizen olmamış. Yorum yapmak için buraya tıklayabilirsiniz.


Siz de Görüş Bildirin

Yorum yazma alanı Akor Merkezi üyelerine özel bir bölümdür. (Giriş Yap / Üye Ol / Şifremi Hatırlat)


Anket
_bIrAdEr_ soruyor:
Türkiye'nin en iyi rock grubu ve ya en iyi rock sanatçısı?











Sonuçlar | Sonuçlar & Yorumlar
Yeni Anket | Anketler



AkorMerkezi.com © 2021
Gizlilik Politikası - Kullanım Koşulları - Kurallar - Son Yorumlar - Rastgele

GitarAkor.com kolonisidir. Derleme 0,03 saniye.