Akor Tab Söz Çeviri Anasayfası
Akor|Tab|Söz|Nota Arşivi
Gitar Akorları | Tab,Söz ve Nota Anasayfası | En Yeni Şarkılar | En Popüler Şarkılar | Akor Cetveli

Bilgiler
 
Seslendiren ve Şarkı: Kazım Koyuncu - Gelevera Deresi
Biçim: TAB -
Tarih: 19 Ekim 2005 Çarşamba
Gönderen: KaRiZmA2004
Toplam Okuyan: 30.858 kişi
Bu Ay Okuyan: 567 kişi
Bu Hafta Okuyan: 49 kişi
 
Beğendiniz mi? Gelevera Deresi Tab sayfasını Şimdi paylaşın:

Kazım Koyuncu - Gelevera Deresi - Tab


Puanlama:
 (91 kişi)

Gelevera Deresi şarkısının diğer versiyonlarına bakın >>

Metin boyutu: ( + Büyült ) ( - Küçült)   
E------------------------|
B-1-6-4-2-1-0-1-2-2------|
G-------------------3-1-0|4 KEZ
D------------------------|
A------------------------|
E------------------------|


E----------------|
B----------------|
G-1-1-1-1-0-0-0-0|2 KEZ
D----------------|
A----------------|
E----------------|



KARADENİZ ÖZGÜN BİR SUDUR.....
Gelevera Deresi Tab, AkorMerkezi.com'da yayınlanmıştır.
http://www.akormerkezi.com


İçerik Kısa Linki:


Beğendiniz mi? Gelevera Deresi Tab sayfasını Şimdi paylaşın:


Gelevera Deresi şarkısı için amatör kayıtları dinleyin: (Siz de Ekleyin)

Gelevera Deresi Tab için Komoçotoko'dan Gelenler
Aramalar: kazım koyuncu keman akorları, gelavera deresi kazım koyuncu notaları, gelevara deresi notası, kazım koyuncu, gelevera deresi kolay tab, gelevera deresi, gelevera deresi kazım koyuncu notaları bağlama, gelevera deresi tanb, gelevera deresi hikayesi özeti, gelevera deresi ajor
Kazım Koyuncu - Gelevera Deresi için Kullanıcı Görüşleri

olmamış uşağum


Bu Yoruma Cevap Ver
PyramoSs | 28 Nisan 2014 Pazartesi 17:33
ilk tabta B telinin sonuna 1 ekleyince daha güzel oluyor


Bu Yoruma Cevap Ver
ckrelcn | 14 Mayıs 2013 Salı 20:51
19 Şubat 2009 Perşembe tarihinde yorumyok yazmıştı:
19 Şubat 2009 Perşembe tarihinde yorumyok yazmıştı:
24 Mart 2008 Pazartesi tarihinde hürremsultan42 yazmıştı:
arkadaşlar bana acilen bu şarkının doğru tabı lazım ne olur yardım edin
buraya attım doğru tabını
E-----2--0--------------------------------------------
B--2--------3--2--0--2--3-3--2---0--------------------
G----------------------------------2--1---------------
D-----------------------------------------------------
A-----------------------------------------------------
E-----------------------------------------------------


E-----2--0--------------------------------------------
B--2--------3--2--0--2--3-3--2---0--------------------
G----------------------------------2--1----2-----1----
D-----------------------------------------------------
A-----------------------------------------------------
E-----------------------------------------------------
E-----1--0--------------------------------------------
B--2--------3--2--0--2--3-3--2---0--------------------
G----------------------------------------2--1---------------
D-----------------------------------------------------
A-----------------------------------------------------
E-----------------------------------------------------


E-----1--0--------------------------------------------
B--2--------3--2--0--2--3-3--2---0--------------------
G----------------------------------------2--1----2-----1----
D-----------------------------------------------------
A-----------------------------------------------------
E-----------------------------------------------------
düzgün attım kaymış düzelttim


Bu Yoruma Cevap Ver
yorumyok | 19 Şubat 2009 Perşembe 03:34
19 Şubat 2009 Perşembe tarihinde yorumyok yazmıştı:
24 Mart 2008 Pazartesi tarihinde hürremsultan42 yazmıştı:
arkadaşlar bana acilen bu şarkının doğru tabı lazım ne olur yardım edin
buraya attım doğru tabını
E-----2--0--------------------------------------------
B--2--------3--2--0--2--3-3--2---0--------------------
G----------------------------------2--1---------------
D-----------------------------------------------------
A-----------------------------------------------------
E-----------------------------------------------------


E-----2--0--------------------------------------------
B--2--------3--2--0--2--3-3--2---0--------------------
G----------------------------------2--1----2-----1----
D-----------------------------------------------------
A-----------------------------------------------------
E-----------------------------------------------------


Bu Yoruma Cevap Ver
yorumyok | 19 Şubat 2009 Perşembe 03:31
arkadaşlar bana acilen bu şarkının doğru tabı lazım ne olur yardım edin


Bu Yoruma Cevap Ver
hürremsultan42 | 24 Mart 2008 Pazartesi 15:13
Diğer arkadaşın yaptığı tab daha güzel .


Bu Yoruma Cevap Ver
narenci | 14 Haziran 2007 Perşembe 14:48
yanlıs tab


Bu Yoruma Cevap Ver
jimm | 18 Nisan 2007 Çarşamba 14:51
necmi arkadaşımızın yaptığı daha doğru mi 1.perde varken neden 6. perdeye basalım ki ;).....ama yine de emeğine sağlık...


Bu Yoruma Cevap Ver
attom | 2 Mart 2007 Cuma 05:04
burda bilgi edinmeye çalışıyoz artislik yapmaya diil çok biliyosan yaz........


Bu Yoruma Cevap Ver
ben | 11 Aralık 2006 Pazartesi 14:42
abi her önüne gelen bi şeyler zırvalıyo şuraya adam gibi yazı yazmayın kardeşim
doğru tabı ve ya akorları yazın ne böle bu ya muabbet ortamına çevirdiniz işi


Bu Yoruma Cevap Ver
smile_smile | 1 Kasım 2006 Çarşamba 13:21
arkadaşım buda ii ama biraz hata var.Benim çıkarttığım vardı onu yazıyorum
e---1-----------------------------------
B-1---4-2-1-----1---2-2-1---------
G---------------3---------------3-1-0


Bu Yoruma Cevap Ver
ben | 7 Ekim 2006 Cumartesi 15:46
başında bir nota yanlış


Bu Yoruma Cevap Ver
zigaga | 7 Ağustos 2006 Pazartesi 21:29
arkadasş ikinci bölümde farklı bir yeri yapmış ve doğru şarkıyı iyi dinleyenkler çıkarır


Bu Yoruma Cevap Ver
ispirli | 22 Temmuz 2006 Cumartesi 12:02
arkadaşlar bu inanılmaz bi adanmış eminim cennettedir


Bu Yoruma Cevap Ver
detu | 6 Temmuz 2006 Perşembe 03:05
2.bölüm yalnış
doğrusu:
E--------------------------------
B-------------------------------
G---0-1-0-1---0--3--0--3--
D-0----------------------------
OLMALI



Bu Yoruma Cevap Ver
otti41 | 19 Şubat 2006 Pazar 23:12
B (0) = si yerine sibemol=G(3) / B= 1-2-2 (1) G= 3 1 0


Bu Yoruma Cevap Ver
cradlestone | 13 Aralık 2005 Salı 00:56
sonunda iki nota eksik gibi yinede çok hoş teşekkürler


Bu Yoruma Cevap Ver
RID_ONE | 7 Aralık 2005 Çarşamba 22:04
kazım koyuncu gibi değerler nedense tam keşfedilmeden erken gidiyor bir karadenizli olarak her zaman gurur duyacağım bir insan oldun..allah rahmet eylesin


Bu Yoruma Cevap Ver
BaYRaKTaR | 7 Aralık 2005 Çarşamba 18:01
Kazım Koyuncu, Karadenizin ta kendisisin be . . . Allah rahmet eylesin, rahat uyu . . .


Bu Yoruma Cevap Ver
dolantin | 29 Kasım 2005 Salı 20:43
tablayı harika yakalmışsın helal olsun.........güzel olmuş ama şarkıyla bütünlük olması için iki gitar olmalı ya da harika bi arpejci olmalısın....ben gibi ::))) başarılar


Bu Yoruma Cevap Ver
badboy_ay | 28 Kasım 2005 Pazartesi 21:51


Siz de Görüş Bildirin

Yorum yazma alanı Akor Merkezi üyelerine özel bir bölümdür. (Giriş Yap / Üye Ol / Şifremi Hatırlat)


Anket
erdiyalcin soruyor:
Pop Müziğinin Durumu Hakkında Ne Düşünüyorsunuz?









Sonuçlar | Sonuçlar & Yorumlar
Yeni Anket | Anketler



AkorMerkezi.com © 2022
Gizlilik Politikası - Kullanım Koşulları - Kurallar - Son Yorumlar - Rastgele

GitarAkor.com kolonisidir. Derleme 0,06 saniye.