Akor Tab Söz Çeviri Anasayfası
Akor|Tab|Söz|Nota Arşivi
Gitar Akorları | Tab,Söz ve Nota Anasayfası | En Yeni Şarkılar | En Popüler Şarkılar | Akor Cetveli

Bilgiler
 
Seslendiren ve Şarkı: Kazım Koyuncu - Gelevera Deresi
Biçim: TAB - FULL
Tarih: 6 Kasım 2012 Salı
Gönderen: by_tursu
Toplam Okuyan: 12.735 kişi
Bu Ay Okuyan: 529 kişi
Bu Hafta Okuyan: 55 kişi
 
Beğendiniz mi? Gelevera Deresi Tab sayfasını Şimdi paylaşın:
DİKKAT!
Gelevera Deresi Tab sayfasını düzgün görüntüleyemiyor olabilirsiniz.
Eğer böyle bir sıkıntınız varsa tıklayın.

Kazım Koyuncu - Gelevera Deresi - Tab

  (versiyon 6)
Puanlama:
 (7 kişi)

Gelevera Deresi şarkısının diğer versiyonlarına bakın >>

Metin boyutu: ( + Büyült ) ( - Küçült)   

E:----------------------------|
B:----6-----------------------|
G:--5---8-6-5---5-6-6-5-------| x4       \
D:------------8---------8-6-5-|                  \
A:----------------------------|                    \
E:----------------------------|                    \
                                             \ GİRİŞ
E:-------------------------------------|     /
B:-------------------------------------|    /
G:-------------------------------------|   /
D:--6-6-6-6--5-5-5-5--6-6-6-6--5-5-5-3-|  /
A:-------------------------------------| /
E:-------------------------------------|


E:---------------------------------|--5------------------|
B:--8-8-7-7-5-5-7---8-8-7-7-5-5-5--|----8-7--------------|
G:----------------7----------------|---------------------| x2
D:---------------------------------|---------------------|
A:---------------------------------|---2.de--------------|
E:---------------------------------|---YOK---------------|

E:----------5-5-5----------------5-5---------------------|
B:----5-7-8-------8-7--8-7-5-7-8-----8-7--8-8-7-7-5-5-5--|
G:--7----------------------------------------------------| x2
D:-------------------------------------------------------|
A:-------------------------------------------------------|
E:-------------------------------------------------------|

E:-------------------------------------------------------|
B:--8-8--8-8---7-7--7-7---8-8--8-8---7-7-7-5-------------|
G:-------------------------------------------------------| 
D:-------------------------------------------------------|
A:-------------------------------------------------------|
E:-------------------------------------------------------|

E:-5-5-5-5--------------5-5-5-5--------------------------------------------|---------|
B:---------7-8-7-5--7-8---------7-8-7-5-7--8-8-8-8--7-7-7-5--8-8-7-7-5-5-5-|--5-7-8--|
G:-------------------------------------------------------------------------|---------| 
D:-------------------------------------------------------------------------|---------|
A:-------------------------------------------------------------------------|---2.de--|
E:-------------------------------------------------------------------------|---YOK---|
                                         (x2)
Gelevera Deresi Tab, AkorMerkezi.com'da yayınlanmıştır.
http://www.akormerkezi.com


İçerik Kısa Linki:


Beğendiniz mi? Gelevera Deresi Tab sayfasını Şimdi paylaşın:


Gelevera Deresi şarkısı için amatör kayıtları dinleyin: (Siz de Ekleyin)

Gelevera Deresi Tab için Komoçotoko'dan Gelenler
Aramalar: askaros deresi tab, gelevera deresi gitar arpeji, gelevera deresi tabs, gelevera deresı gıtar akorları, gelevera deresi gitar ritmi, kazım koyuncu gelevera deresi akorları, gelwvra dereai tab, gelevera deresi.tab, gelevera deresi silo tab, gelevera deresi gitar akorları mi üzeri
Kazım Koyuncu - Gelevera Deresi için Kullanıcı Görüşleri

Cidden muhteşem :)


Bu Yoruma Cevap Ver
Thewheart | 9 Kasım 2014 Pazar 11:27
mükemmel


Bu Yoruma Cevap Ver
dkk94 | 24 Ocak 2014 Cuma 18:58


Siz de Görüş Bildirin

Yorum yazma alanı Akor Merkezi üyelerine özel bir bölümdür. (Giriş Yap / Üye Ol / Şifremi Hatırlat)


Anket
brkemre soruyor:
Gelecek sene Eurovision'a kim katılmalı?









Sonuçlar | Sonuçlar & Yorumlar
Yeni Anket | Anketler



AkorMerkezi.com © 2022
Gizlilik Politikası - Kullanım Koşulları - Kurallar - Son Yorumlar - Rastgele

GitarAkor.com kolonisidir. Derleme 0,03 saniye.