Akor Tab Söz Çeviri Anasayfası
Akor|Tab|Söz|Nota Arşivi
Gitar Akorları | Tab,Söz ve Nota Anasayfası | En Yeni Şarkılar | En Popüler Şarkılar | Akor Cetveli

Bilgiler
 
Seslendiren ve Şarkı: Leyla The Band - Yokluğunda
Biçim: TAB - INTRO
Tarih: 30 Kasım 2013 Cumartesi
Gönderen: kaanv74
Toplam Okuyan: 9.077 kişi
Bu Ay Okuyan: 186 kişi
Bu Hafta Okuyan: 23 kişi
 
Beğendiniz mi? Yokluğunda Tab sayfasını Şimdi paylaşın:

Leyla The Band - Yokluğunda - Tab

  (versiyon 4)
Puanlama:
 (8 kişi)

Yokluğunda şarkısının diğer versiyonlarına bakın >>

Metin boyutu: ( + Büyült ) ( - Küçült)   
intro kısmının tablarını basitleştirdim biraz. 


e---------------------------
b----------5-5--4----------
g----7-7----------5-5-5--7
d---------------------------
a---------------------------
e---------------------------


e---------------------------
b----------5-5--4----4-5-7
g----7-7-----------7------- 
d---------------------------
a---------------------------
e---------------------------


e----------------------------------------------------
b----------5-5--4-----------------------------------
g----7-7-----------3-3-3-5----5-5-5-7----5-3-2--
d-----------------------------------------------------
a-----------------------------------------------------
e-----------------------------------------------------

Yokluğunda Tab, AkorMerkezi.com'da yayınlanmıştır.
http://www.akormerkezi.com


İçerik Kısa Linki:


Beğendiniz mi? Yokluğunda Tab sayfasını Şimdi paylaşın:



Yokluğunda Tab için Komoçotoko'dan Gelenler
Aramalar: leyla the band-yokluğunda tab, leyla the band yokluğunda tab, yokluğunda tab intro ver 1, leyla the band yoklugunda intro, Yokluğunda leyla, yokluğunda, leyla the band yokluğunda, leyla the band tab, yokluğunda tab4, leyla the band - yokluğunda
Leyla The Band - Yokluğunda için Kullanıcı Görüşleri

Henüz buraya yazan çizen olmamış. Yorum yapmak için buraya tıklayabilirsiniz.


Siz de Görüş Bildirin

Yorum yazma alanı Akor Merkezi üyelerine özel bir bölümdür. (Giriş Yap / Üye Ol / Şifremi Hatırlat)


Anket
lyricsk soruyor:
Cort X6 Nasıl?









Sonuçlar | Sonuçlar & Yorumlar
Yeni Anket | Anketler



AkorMerkezi.com © 2022
Gizlilik Politikası - Kullanım Koşulları - Kurallar - Son Yorumlar - Rastgele

GitarAkor.com kolonisidir. Derleme 0,06 saniye.