Akor Tab Söz Çeviri Anasayfası
Akor|Tab|Söz|Nota Arşivi
Gitar Akorları | Tab,Söz ve Nota Anasayfası | En Yeni Şarkılar | En Popüler Şarkılar | Akor Cetveli

Bilgiler
 
Seslendiren ve Şarkı: Leyla The Band - Yokluğunda
Biçim: TAB - INTRO
Tarih: 16 Mayıs 2013 Perşembe
Gönderen: desolator11
Toplam Okuyan: 35.384 kişi
Bu Ay Okuyan: 462 kişi
Bu Hafta Okuyan: 36 kişi
 
Beğendiniz mi? Yokluğunda Tab sayfasını Şimdi paylaşın:

Leyla The Band - Yokluğunda - Tab

  (versiyon 2)
Puanlama:
 (10 kişi)

Yokluğunda şarkısının diğer versiyonlarına bakın >>

Metin boyutu: ( + Büyült ) ( - Küçült)   
e----------------------------------------------------------------------------------
b-----------1-0-0---------------1-0-0--0h1h3-----1-0-0--------------------0--------
g---2v--2-2------0-0h2-2-2--2-2------0-------2-2-------0-0h2-2-2------0h2---0------
d-----------------------------------------------------------------3-3--------------
a----------------------------------------------------------------------------------
E----------------------------------------------------------------------------------



e------------------------------------------------------------------------
b------------1-0-0-----------------------0-------------------------------
g---2---2-2---------0-0h2-2-2-------0h2-----0--------0h2p0---------------
d-----2------------------------3-3--------------3------------3-2-2-------
a------------------------------------------------------------------------
E------------------------------------------------------------------------


Son kısımdaki kayma tam olmadı ama idare ediyo :)

V=teli titreştirmek (vibrato) [germek de diyebiliriz]
h=kalından inceye hızlı geçiş (hammer on )
p=inceden kalına geçiş (pull off)

Şarkıyı dinlerken çıkardım öyle tam olmamış olabilir ..
Yokluğunda Tab, AkorMerkezi.com'da yayınlanmıştır.
http://www.akormerkezi.com


İçerik Kısa Linki:


Beğendiniz mi? Yokluğunda Tab sayfasını Şimdi paylaşın:



Yokluğunda Tab için Komoçotoko'dan Gelenler
Aramalar: yoklugunda tab ver, yokluğunda leyla the band tab akoru, Leyla The Band - Yokluğunda orjinal akor, leyla the band -yokluğunda tab, yolulugunda tab, leyya the band yoklugunda giris nota, leyla the band yokluğunda gitar tab, leyla the band yokluğunda tap, yokluğunda+tab, leyla the band intro tab
Leyla The Band - Yokluğunda için Kullanıcı Görüşleri

Çok güzel olmuş. Emeğinize sağlık ... :)


Bu Yoruma Cevap Ver
eng_771 | 17 Haziran 2013 Pazartesi 11:05


Siz de Görüş Bildirin

Yorum yazma alanı Akor Merkezi üyelerine özel bir bölümdür. (Giriş Yap / Üye Ol / Şifremi Hatırlat)


Anket
Hc_Sinan_Hc soruyor:
HAYKO CEPKİN in yeni albümünden en sevdiğiniz şarkısı hangisi ?













Sonuçlar | Sonuçlar & Yorumlar
Yeni Anket | Anketler



AkorMerkezi.com © 2022
Gizlilik Politikası - Kullanım Koşulları - Kurallar - Son Yorumlar - Rastgele

GitarAkor.com kolonisidir. Derleme 0,06 saniye.