Akor Tab Söz Çeviri Anasayfası
Akor|Tab|Söz|Nota Arşivi
Gitar Akorları | Tab,Söz ve Nota Anasayfası | En Yeni Şarkılar | En Popüler Şarkılar | Akor Cetveli

Bilgiler
 
Seslendiren ve Şarkı: Metallica - Nothing Else Matters
Biçim: Bass Tab, Bass Gitar Tab - FULL
Tarih: 29 Eylül 2012 Cumartesi
Gönderen: Raminn
Toplam Okuyan: 3.403 kişi
Bu Ay Okuyan: 31 kişi
Bu Hafta Okuyan: 7 kişi
 
Beğendiniz mi? Nothing Else Matters Bass Tab sayfasını Şimdi paylaşın:

Metallica - Nothing Else Matters - Bass Tab

  (versiyon 2)
Puanlama:
 (1 kişi)

Nothing Else Matters şarkısının diğer versiyonlarına bakın >>

Metin boyutu: ( + Büyült ) ( - Küçült)   
00:14
G------------------------------------------
D----------------------------------------
A---------------------------------------
E---5----7------------------------------
 00:22 de birdaha yap
00:31
G---------------------------------------
D---------------------------------------
A---5-------------------------------------
E---------7------------------------------- 
00:39
G------------------------------------------
D------------------------------------------
A-------------------------------------------
E---5----7--------------------------------

G---------------------------------------------------------
D---------------------------------------------------------
A--------------------------------2-----2----------------
E--1---------1--4--------4----------------------------

G--------------------------------------------------------------------
D--------------------------------------------------------------------
A--------------------2---3--------3---2--------------------------
E---5----------5---------------------------3-----3------------

G-------------------------------------------------------------
D-------------------------------------------------------------
A-------------------------------------------------------------
E---5--0----------0--0------3----5-----------------------

G-------------------------------------------------------------
D-------------------------------------------------------------
A-----------------------------------3-------3-3------------
E----5---------5--5---000--3----------------------------

G------------------------------------------------------------
D------------------------------------------------------------
A----------------------------------5------7----------------
E---000--3----5-----5--5------------------------------

G-----------------------------------------------------------
D-----------------------------------------------------------
A-----------------------------------------------------------
E--7-7------3--2-----0-----------------------------------



Nothing Else Matters Bass Tab, AkorMerkezi.com'da yayınlanmıştır.
http://www.akormerkezi.com


İçerik Kısa Linki:


Beğendiniz mi? Nothing Else Matters Bass Tab sayfasını Şimdi paylaşın:



Nothing Else Matters Bass Tab için Komoçotoko'dan Gelenler
Aramalar: nothing else matters tab akor, metallica nothing else matters akor, metallica, nothing else matters bass tab, else, metallica nothing else matters, metallica nothing else matters bass tab, nothing else matters bass, nothing else matters tab ver 2 akor merkezi, nothing else matters akor tab
Metallica - Nothing Else Matters için Kullanıcı Görüşleri

Henüz buraya yazan çizen olmamış. Yorum yapmak için buraya tıklayabilirsiniz.


Siz de Görüş Bildirin

Yorum yazma alanı Akor Merkezi üyelerine özel bir bölümdür. (Giriş Yap / Üye Ol / Şifremi Hatırlat)


Anket
batugurkan soruyor:
Mayıstaki Nirvana konserinden haberdarmısınız?









Sonuçlar | Sonuçlar & Yorumlar
Yeni Anket | Anketler



AkorMerkezi.com © 2022
Gizlilik Politikası - Kullanım Koşulları - Kurallar - Son Yorumlar - Rastgele

GitarAkor.com kolonisidir. Derleme 0,06 saniye.