Akor Tab Söz Çeviri Anasayfası
Akor|Tab|Söz|Nota Arşivi
Gitar Akorları | Tab,Söz ve Nota Anasayfası | En Yeni Şarkılar | En Popüler Şarkılar | Akor Cetveli

Bilgiler
 
Seslendiren ve Şarkı: Moonspell - Alma Mater
Biçim: Bass Tab, Bass Gitar Tab -
Tarih: 27 Eylül 2005 Salı
Gönderen: Autumn Rain
Toplam Okuyan: 772 kişi
Bu Ay Okuyan: 23 kişi
Bu Hafta Okuyan: 1 kişi
 
Beğendiniz mi? Alma Mater Bass Tab sayfasını Şimdi paylaşın:

Moonspell - Alma Mater - Bass Tab


Puanlama:
 (0 kişi)

Alma Mater şarkısının diğer versiyonlarına bakın >>

Metin boyutu: ( + Büyült ) ( - Küçült)   
Intro:
G|0-0-0-4--0-------2---
D|-----------3-3-3---3-
A|---------------------
E|---------------------

Verses:
G|---|----000-4-0-----2-------
D|---|------------333---3-----
A|-0-|------------------------
E|---|------------------------
  x37
Bridge:
G|----------------------000-    
D|-222222222222222222333----        D-2~~~------
A|--------------------------
E|--------------------------x4

during the guitar solo:
G|---------------------------|--------------------------|
D|---------------------------|--------------------------|
A|-000000000-----------------|-------------------333333-|
E|----------333-111111111111-|-333333333333000000-------|
                           x4                          x4

Alma Mater Bass Tab, AkorMerkezi.com'da yayınlanmıştır.
http://www.akormerkezi.com


İçerik Kısa Linki:


Beğendiniz mi? Alma Mater Bass Tab sayfasını Şimdi paylaşın:


Alma Mater Bass Tab için Komoçotoko'dan Gelenler
Aramalar: moonspell alma mater türkçe, moonspell alma mater bass tabs, 222222222222222222333, alma mater bass tabs, alma mater akor, moonspell alma mater bass akorları, moonspell alma mater bass tab
Moonspell - Alma Mater için Kullanıcı Görüşleri

bu ne ?? =((


Bu Yoruma Cevap Ver
washburnxxx | 10 Ağustos 2006 Perşembe 16:15


Siz de Görüş Bildirin

Yorum yazma alanı Akor Merkezi üyelerine özel bir bölümdür. (Giriş Yap / Üye Ol / Şifremi Hatırlat)


Anket
lensgitar soruyor:
Hangi renk gitar istersiniz?










Sonuçlar | Sonuçlar & Yorumlar
Yeni Anket | Anketler



AkorMerkezi.com © 2022
Gizlilik Politikası - Kullanım Koşulları - Kurallar - Son Yorumlar - Rastgele

GitarAkor.com kolonisidir. Derleme 0,03 saniye.