Akor Tab Söz Çeviri Anasayfası
Akor|Tab|Söz|Nota Arşivi
Gitar Akorları | Tab,Söz ve Nota Anasayfası | En Yeni Şarkılar | En Popüler Şarkılar | Akor Cetveli

Bilgiler
 
Seslendiren ve Şarkı: Muazzez Ersoy - Adını Anmayacağım
Biçim: TAB - SOLO
Tarih: 4 Kasım 2013 Pazartesi
Gönderen: sinan42
Toplam Okuyan: 1.407 kişi
Bu Ay Okuyan: 32 kişi
Bu Hafta Okuyan: 5 kişi
 
Beğendiniz mi? Adını Anmayacağım Tab sayfasını Şimdi paylaşın:

Muazzez Ersoy - Adını Anmayacağım - Tab


Puanlama:
 (1 kişi)

Adını Anmayacağım şarkısının diğer versiyonlarına bakın >>

Metin boyutu: ( + Büyült ) ( - Küçült)   
e---1-0-----1-0------1-0----1-0-----3--1--0-----0
b-3-----3-------3-3------3------3-------------3---3--1

e-----0------0---------0------0----
b-1-----3-1----3-1--1----3-1----3-1

e-5--1--------------5--5--5--6-5-6-5----6--5--5--1-3-1-0
b------3----1-------------------------------------------
g---------3---3--2--------------------------------------

e-3--3--3--3-2-5--3---------------------
b----------------------------------1----
g-----------------------3--3--3--3---3--2

e-3--1--0---0--------------------------
b---------3----3--1--1--1--3---1--3----
g-----------------------------------2--3

e-1-0------------------
b-----3---1------1-----
g-------------3-----2--




Adını Anmayacağım Tab, AkorMerkezi.com'da yayınlanmıştır.
http://www.akormerkezi.com


İçerik Kısa Linki:


Beğendiniz mi? Adını Anmayacağım Tab sayfasını Şimdi paylaşın:


Adını Anmayacağım şarkısı için amatör kayıtları dinleyin: (Siz de Ekleyin)

Adını Anmayacağım Tab için Komoçotoko'dan Gelenler
Aramalar: muazzez ersoy, adını anmayacağım tab, adını anmayacağım, muazzez ersoy tab
Muazzez Ersoy - Adını Anmayacağım için Kullanıcı Görüşleri

Henüz buraya yazan çizen olmamış. Yorum yapmak için buraya tıklayabilirsiniz.


Siz de Görüş Bildirin

Yorum yazma alanı Akor Merkezi üyelerine özel bir bölümdür. (Giriş Yap / Üye Ol / Şifremi Hatırlat)


Anket
DaRmADuMaNiSt soruyor:
Gitar Çalmayı Elektro Gitarda Öğrenebilir Miyim?








Sonuçlar | Sonuçlar & Yorumlar
Yeni Anket | Anketler




Toplu SMS
AkorMerkezi.com © 2021
Gizlilik Politikası - Kullanım Koşulları - Kurallar - Son Yorumlar - Rastgele

GitarAkor.com kolonisidir. Derleme 0,05 saniye.