Akor Tab Söz Çeviri Anasayfası
Akor|Tab|Söz|Nota Arşivi
Gitar Akorları | Tab,Söz ve Nota Anasayfası | En Yeni Şarkılar | En Popüler Şarkılar | Akor Cetveli

Bilgiler
 
Seslendiren ve Şarkı: Sema - Fikrimin İnce Gülü
Biçim: TAB - FULL
Tarih: 03 Aralık 2012 Pazartesi
Gönderen: blackyoung
Toplam Okuyan: 13.827 kişi
Bu Ay Okuyan: 397 kişi
Bu Hafta Okuyan: 49 kişi
 
Beğendiniz mi? Fikrimin İnce Gülü Tab sayfasını Şimdi paylaşın:

Sema - Fikrimin İnce Gülü - Tab

  (versiyon 2)
Puanlama:
 (212 kişi)

Fikrimin İnce Gülü şarkısının diğer versiyonlarına bakın >>

Metin boyutu: ( + Büyült ) ( - Küçült)   
E|-5--7--8--7----5--7--8--7-----7--5--3-----------------------------------------|
B|----------------------------------------7--5--3--3--5--7--3--1--3--1--0-------|
G|------------------------------------------------------------------------------|

E|-5--7--7--7--5--7--8--7----5s7--8--8--7--5--5--3--2--3------------------------|
B|------------------------------------------------------------------------------|
G|------------------------------------------------------------------------------|

E|-2--3--5--2-------------------------------------------------------------------|
B|-------------5--3--7s1--1--1--0-----3--1--0-----------------------------------|
G|---------------------------------2--------------------------------------------|

Fikrimin İnce Gülü Tab, AkorMerkezi.com'da yayınlanmıştır.
http://www.akormerkezi.com


İçerik Kısa Linki:


Beğendiniz mi? Fikrimin İnce Gülü Tab sayfasını Şimdi paylaşın:


Fikrimin İnce Gülü şarkısı için amatör kayıtları dinleyin: (Siz de Ekleyin)

Fikrimin İnce Gülü Tab için Komoçotoko'dan Gelenler
Aramalar: fikrimin ince gülü notaları, sema fikrimin ince gülü, fikrimin ince gülü gitar notaları, sema ince çarşambalı, fikrimin+ince+gülü+solo+notaları, fikrimin ince gulu gitar notalari rakamli, sema fikrimin ince gülü tab 2, fikrimin ince gulu gitar nota tab, fikrimin+ince+gülü+akor, fikrimin ince gulu notalari
Sema - Fikrimin İnce Gülü için Kullanıcı Görüşleri

19 Aralık 2012 Çarşamba tarihinde Defne Buse yazmıştı:
çok güzel olmuş emeğine sağlık :)
teşekkürler...


Bu Yoruma Cevap Ver
blackyoung | 20 Aralık 2012 Perşembe 00:38
çok güzel olmuş emeğine sağlık :)


Bu Yoruma Cevap Ver
Defne Buse | 19 Aralık 2012 Çarşamba 17:31


Siz de Görüş Bildirin

Yorum yazma alanı Akor Merkezi üyelerine özel bir bölümdür. (Giriş Yap / Üye Ol / Şifremi Hatırlat)


Anket
meçhul rockçı soruyor:
Hangisinin yerinde olmak istersiniz?













Sonuçlar | Sonuçlar & Yorumlar
Yeni Anket | Anketler




Radyo Dinle
AkorMerkezi.com © 2019
Gizlilik Politikası - Kullanım Koşulları - Kurallar - Son Yorumlar - Rastgele

GitarAkor.com kolonisidir. Derleme 0,02 saniye.